Black Dub - Nomad tab

Black Dub - Nomad

Verses
Goes in the same riff, in all verses.

e|----------------------|
B|----------------------|
G|----------------------|
D|--------2---------2---|
A|-2h3-2-----2h3-2------|
E|----------------------|

After the chorus he plays this little lick, after playing riff 1 two times.

e|----------------------|
B|-3/5-5-5-3------------|
G|----------------------|
D|----------------------|
A|----------------------|
E|----------------------|

Chorus: |D|Am|C|C|

Solo 1

e|----2-2-3-2-------------------------------------------------------------|
B|----3-3-3-3--------------------10-10-12-10-12--------------3/5-5-5-3-3-3|
G|-5~~--------5-5/7/5-5/7-7-9-12----------------7~~-----------------------|
D|-5~~------------------------------------------7~~-------2---------------|
A|-3~~------------------------------------------5~~-2h3-2-----------------|
E|------------------------------------------------------------------------|

I didn't figure out the second solo yet.

www.blackdub.net
Tap to rate this tab
 
# A B C D E F G H I J K L M N O P Q R S T U V W X Y Z