Song name
# A B C D E F G H I J K L M N O P Q R S T U V W X Y Z

Black Eyed Peas - I Got A Feeling tab

Artist: Black Eyed Peas
Song: I Got A Feeling
Album: The E.N.D.

Tabber: amnon

Standard Tuning




Guitar 1 or Keyboard
--------------------

e|--------------------------------------|
B|--------------------------------------|
G|-7777-5544-55555555-44444444-55555555-|
D|-5555-5555-55555555-55555555-55555555-|
A|-----------33333333-xxxxxxxx-33333333-|
E|--------------------00000000----------|


Guitar 2 or Bass
----------------

G|---------------------------------------------------------------------|
D|---------------------------------------------------------------------|
A|------------------3333333333333333------------------3333333333333333-|
E|-3333333333333333------------------0000000000000000------------------|


||Chorus|| starts at 1:30
-------------------------

e|-0---0---0---0---1-0-1-0-1-0-1-0-3-0-3-0-3-0-3-0-3-0-3-0-3-0-3-0-|
B|---3---3---3---3-------------------------------------------------|
G|-----------------------------------------------------------------|
D|-----------------------------------------------------------------|
A|-----------------------------------------------------------------|
E|-----------------------------------------------------------------|


||Chorus2|| 3:00 - 4:15
-----------------------

e|-3---3---3--3---3---3--|-3---3---3--3---3---3--|-3---3---3--3---3---3--|-3---3---3--3---3---3--|
B|--3---3---3--3---3---3-|--5---5---5--5---5---5-|--5---5---5--5---5---5-|--5---5---5--5---5---5-|
G|---4---4------4---4----|---5---5------5---5----|---4---4------4---4----|---5---5------5---5----|
D|-----------------------------------------------------------------------------------------------|
A|-----------------------------------------------------------------------------------------------|
E|-----------------------------------------------------------------------------------------------|
Tap to rate this tab
# A B C D E F G H I J K L M N O P Q R S T U V W X Y Z