Guitaretab - guitar tabs
Song name
# A B C D E F G H I J K L M N O P Q R S T U V W X Y Z

Black Eyed Peas - Positivity tab

Tabbed by: Daniel Berry

x=mute string
h=hammer on
p=pull off

Intro: 0.06
e---------------------------------------------------------------------------|
B---------------------------------------------------------------------------|
G---6-6-6-xx-6-6-6-xx-6-xx-6-6-6-xx-7-7-6-xx-6-xx-6-6-8-xx-9-9-8-xx-9-xx----|
D---8-8---xx-8-8---xx-8-xx-7-7---xx-7-7---xx-7-xx-6-6---xx-6-6---xx-6-xx----|
A---------------------------------------------------------------------------|
E---------------------------------------------------------------------------|

e----------------------|
B----------------------|
G---8-x-9-x-8-x-6-xx---|
D---6-x-6-x-6-x-6-xx---|  x2
A----------------------|
E----------------------|

Repeat at 1.02 x3  and at 2.10 x3

At 3.06
    Ab                 Gbmaj7          C            Abmaj7
e---8--8h11p8------8---9----9----------12-12-15-12--11---|
B---9---------9--------11----11--------13-----------13---|
G---8-----------8------10------10------12-----------12---|
D----------------------11--------11-----------------13---|    x1
A----------------------9----------------------------11---|
E--------------------------------------------------------|

Then, at 3.17
    Bb         C
e---10---10----12--12---|
B---11---11----13--13---|
G---10---10----12--12---|
D-----------------------|  x8
A-----------------------|
E-----------------------|
[ Tab from: http://www.guitaretab.com/b/black-eyed-peas/145483.html ]
At 4.03, softly
    C            Abmaj7
e---12-12-15-12--11---|
B---13-----------13---|
G---12-----------12---|
D----------------13---|  x1
A----------------11---|
E---------------------|

At 4.08
    C              Bb                  Ebmaj7         Cm
e---12-12--12-12---10-10--10-10-10-xx--10-10--10-10---8-8--8-8--8-xx---|
B---13-13--13-13---11-11--11-11-11-xx--8--8---8--8----8-8--8-8--8-xx---|
G---12-12--12-12---10-10--10-10-10-xx--8--8---8--8----8-8--8-8--8-xx---|
D----------------------------------------------------------------------| x4
A----------------------------------------------------------------------|
E----------------------------------------------------------------------|

At 4.34, softly
    C            Abmaj7
e---12-12-15-12--11---|
B---13-----------13---|
G---12-----------12---|
D----------------13---|  x1
A----------------11---|
E---------------------|

At 4.39
    C              Bb                  Ebmaj7         Cm
e---12-12--12-12---10-10--10-10-10-xx--10-10--10-10---8-8--8-8--8-xx---|
B---13-13--13-13---11-11--11-11-11-xx--8--8---8--8----8-8--8-8--8-xx---|
G---12-12--12-12---10-10--10-10-10-xx--8--8---8--8----8-8--8-8--8-xx---|
D----------------------------------------------------------------------| x4
A----------------------------------------------------------------------|
E----------------------------------------------------------------------|

Listen to the song to get the rhythms right.
Related for Positivity tab
Advertisement will be closed in 10 seconds