Song name
# A B C D E F G H I J K L M N O P Q R S T U V W X Y Z

Black Eyed Peas - Karma tab

hey

Basic:

E||----------------------||
B||----------------------||
G||--4----7----6----5----||
D||--4----7----6----5----||
A||--2----5----4----3----||
E||----------------------||

better Version:

E||--2----2--------------||
B||--3----3--------------||
G||--4----2----6----5----||
D||--4----4----6----5----||
A||--2----2----4----3----||
E||--2----2--------------||
(note: don't strum the strings down in a fast motion if you play the notes one after one 
keep the "groovy/ghosty" emotion ;) )

Sounds quite well if both Versions are played together! =)

hope that one helps
Martin
Tap to rate this tab
# A B C D E F G H I J K L M N O P Q R S T U V W X Y Z