Song name
# A B C D E F G H I J K L M N O P Q R S T U V W X Y Z

Black Flag - Nervous Breakdown tab

Song: Nervous Breakdown
Artist: Black Flag
Standard Tuning


Intro

e|--------------------------------|
B|--------------------------------|
G|-------9---------------7--------|
D|-9-9-9-9--9-9-9--7-7-7-7--7-7-7-| x4
A|-9-9-9-7--9-9-9--7-7-7-5--7-7-7-|
E|-7-7-7----7-7-7--5-5-5----5-5-5-|



Verse 1

|--------------------------------|
|--------------------------------|
|-------9---------------7--------|
|-9-9-9-9--9-9-9--7-7-7-7--7-7-7-| x4
|-9-9-9-7--9-9-9--7-7-7-5--7-7-7-|
|-7-7-7----7-7-7--5-5-5----5-5-5-|

I'm about to have a nervous breakdown...

|----------------------------------------------|
|----------------------------------------------|
|----------------------------------------------|
|-5-5-5-5--7-7-7-7--9-9-9-9-9-9-9-9--9-7-5-7-5-| x2
|-5-5-5-5--7-7-7-7--9-9-9-9-9-9-9-9--9-7-5-7\5-|
|-3-3-3-3--5-5-5-5--7-7-7-7-7-7-7-7--7-5-3-5\3-|


|-------------------------------------|
|-------------------------------------|
|-------------------------------------|
|-5-5-5-5--7-7-7-7--9-9-9-9-9-9-9-9---| 
|-5-5-5-5--7-7-7-7--9-9-9-9-9-9-9-9---|
|-3-3-3-3--5-5-5-5--7-7-7-7-7-7-7-7---|


|-----|
|-----|
|-----|
|--9--| x8
|--9--|
|--7--|


|--------------------------------|
|--------------------------------|
|-------9---------------7--------|
|-9-9-9-9--9-9-9--7-7-7-7--7-7-7-| x2
|-9-9-9-7--9-9-9--7-7-7-5--7-7-7-|
|-7-7-7----7-7-7--5-5-5----5-5-5-|



Verse 2 is the same as Verse 1



Verse 3

|--------------------------------|
|--------------------------------|
|-------9---------------7--------|
|-9-9-9-9--9-9-9--7-7-7-7--7-7-7-| x4
|-9-9-9-7--9-9-9--7-7-7-5--7-7-7-|
|-7-7-7----7-7-7--5-5-5----5-5-5-|

I won't apologize...

|----------------------------------------------|
|----------------------------------------------|
|----------------------------------------------|
|-5-5-5-5--7-7-7-7--9-9-9-9-9-9-9-9--9-7-5-7-5-| x2
|-5-5-5-5--7-7-7-7--9-9-9-9-9-9-9-9--9-7-5-7\5-|
|-3-3-3-3--5-5-5-5--7-7-7-7-7-7-7-7--7-5-3-5\3-|


|-------------------------------------|
|-------------------------------------|
|-------------------------------------|
|-5-5-5-5--7-7-7-7--9-9-9-9-9-9-9-9---| 
|-5-5-5-5--7-7-7-7--9-9-9-9-9-9-9-9---|
|-3-3-3-3--5-5-5-5--7-7-7-7-7-7-7-7---|


  P.M
|-----|
|-----|
|-----|
|--9--| x8
|--9--|
|--7--|


|--------------------------------|
|--------------------------------|
|-------9---------------7--------|
|-9-9-9-9--9-9-9--7-7-7-7--7-7-7-| x4
|-9-9-9-7--9-9-9--7-7-7-5--7-7-7-|
|-7-7-7----7-7-7--5-5-5----5-5-5-|



Outro

|--------------------------------|
|--------------------------------|
|-------9---------------7--------|
|-9-9-9-9--9-9-9--7-7-7-7--7-7-7-| x2
|-9-9-9-7--9-9-9--7-7-7-5--7-7-7-|
|-7-7-7----7-7-7--5-5-5----5-5-5-|

Crazy!...

|----------------------------------------------|
|----------------------------------------------|
|----------------------------------------------|
|-5-5-5-5--7-7-7-7--9-9-9-9-9-9-9-9--9-7-5-7-5-| x2
|-5-5-5-5--7-7-7-7--9-9-9-9-9-9-9-9--9-7-5-7\5-|
|-3-3-3-3--5-5-5-5--7-7-7-7-7-7-7-7--7-5-3-5\3-|


|----------------------------|
|----------------------------|
|----------------------------|
|-9-9-9-9-9-9-9-9--9-7-5-7-5-| x2
|-9-9-9-9-9-9-9-9--9-7-5-7\5-|
|-7-7-7-7-7-7-7-7--7-5-3-5\3-|


|---------------------|
|---------------------|
|---------------------|
|-9--9--9--9--9-----9-| 
|-9--9--9--9--9-----9-|
|-7--7--7--7--7-----7-|
Tap to rate this tab
# A B C D E F G H I J K L M N O P Q R S T U V W X Y Z