Song name
# A B C D E F G H I J K L M N O P Q R S T U V W X Y Z

Black Guayaba - Por Ti tab

Song: Por Tí (Solo)
Artist: Black:Guayaba
Album: Lo Demás es Plastico
Tuning: E
Tabbed by: Alex Rivera
d.c.guitar@homtail.com

Solo:
(Clean Part) Neck Pickup

e|-------------------------------------------------------|
B|-------------------------------------------------------|
G|---------10--9----------10----10-12~-10-12-10-10-------|
D|---10\12-----10---10-12----12--------------------12~---|
A|-------------------------------------------------------|
E|-------------------------------------------------------|

e|-----10-12 12h13-12h13p12---------------------------|
B|----10-------------------13--11-10----11--10--------|
G|---10------------------------------12--------10~~---|
D|----------------------------------------------------|
A|----------------------------------------------------|
E|----------------------------------------------------|
      *sweep


(Distorted Part) Bridge Pickup

e|--------------------------------------------|
B|--------------------------------------------|
G|---7-9-10-9---------12----10----9h10p9------|
D|------------10---10----10----10--------12---|
A|--------------------------------------------|
E|--------------------------------------------|
                    *     *     *

e|-----------------------------------|
B|-----------------------------------|
G|---7-9-10-12b14r10-12---10h12-10---|
D|-----------------------------------|
A|-----------------------------------|
E|-----------------------------------|
            (h)Harmonic

e|-----------------------------------------------------------------|
B|-----------------------------------------------------------------|
G|---10p9p7-10p9p7-10p9p7-10p9p7-12p10p9-12p10p9-12p10p9-12p10p9---|
D|-----------------------------------------------------------------|
A|-----------------------------------------------------------------|
E|-----------------------------------------------------------------|


e|----------------------------------------|
B|-----------------13---------------------|
G|---\14--14-14-15----15-14-14h15p14-12---|
D|----------------------------------------|
A|----------------------------------------|
E|----------------------------------------|


e|------------10------------------------------------10-------------------------|
B|---------10----10-13b15--10h13p10--------------10----10-13b15--10h13p10------|
G|---12b14--------------------------12-10--12b14--------------------------12---|
D|-----------------------------------------------------------------------------|
A|-----------------------------------------------------------------------------|
E|-----------------------------------------------------------------------------|


e|----------------------------------------------|
B|--------------------------------------13-15---|
G|------------10-12-14--15-14-12--14-15---------|
D|--10-12-14------------------------------------|
A|----------------------------------------------|
E|----------------------------------------------|
Tap to rate this tab
 
# A B C D E F G H I J K L M N O P Q R S T U V W X Y Z