Black Joe Lewis And The Honeybears - Sugarfoot tab

-------------------------------------------------------------------------------
	         SUGARFOOT - Black Joe Lewis and the Honeybears
-------------------------------------------------------------------------------
Tabbed by: ironmanben
Email: bentrooper@gmail.com

Black Joe Lewis & the Honeybears' official website: www.blackjoelewis.com/bio.aspx

Tuning: e B G D A E

guitar 1 - Joe Lewis - rhythm
guitar 2 - Zach Ernst - rhythm
guitar 3 - Zach Ernst - lead


intro:
 | x2                              | x1                      |
e|---------------------------------|-------------------------|
B|---------------------------------|-------------------------|
G|---------------------------------|-------------------------|
D|---------------------------------|-------------------------|
A|---------------------------------|-------------------------|
E|-3---------------3---------------|-3-------3---3---3---3---|
-|                                 |                         |
e|---------------------------------|-------------------------|
B|---------------------------------|-------------------------|
G|---------------------------------|-------------------------|
D|-5---------------5---------------|-5-------5---5---5---5---|
A|---------------------------------|-------------------------|
E|---------------------------------|-------------------------|
-|                                 |                         |
e|---------------------------------|-------------------------|
B|---------------------------------|-------------------------|
G|-4---------------4---------------|-4-------4---4---4---4---|
D|---------------------------------|-------------------------|
A|---------------------------------|-------------------------|
E|---------------------------------|-------------------------|


main riff:
e|-----------------------------------|
B|-------------------3-3-3-x/5-5-5-x-|
G|-4---4-----x-x-4-4-4-4-4-x-3-3-3-x-|
D|-3---3-----x-x---------------------|
A|-----------------------------------|
E|-----------------------------------|
-|                                   |
e|-----------------------------------|
B|-----------------------------------|
G|-4---------------------------------|
D|-3-----5-----3-3-3-3-3---3---5-----|
A|-----------------------------------|
E|-----------------------------------|


verse:
e|-----------------------------------|
B|-------------------3-3-3-x/5-5-5-x-|
G|-4---4-----x-x-4-4-4-4-4-x-3-3-3-x-|
D|-3---3-----x-x---------------------|
A|-----------------------------------|
E|-----------------------------------|
-|                                   |
e|-----------------------------------|
B|-------------------3-3-3--/5-5-5---|
G|-4---4-----------------------------|
D|-3---3-----------------------------|
A|-----------------------------------|
E|-----------------------------------|



chorus:
e|-----------------------------------------------------------------|
B|-----------------------------------------------------------------|
G|-----------------------------------------------------------------|
D|-----x-----x-x-x-----x-----x-x-x-----x-----x-----x-----x---x---x-|
A|-1-3-x-1-3-x-x-x-1-3-x-1-3-x-x-x-1-3-x-1-3-x-1-3-x-1-3-x-3-x-3-x-|
E|-----------------------------------------------------------------|
-|                                                                 |
e|-----------------------------------------------------------------|
B|-----------------------------------------------------------------|
G|-3-5---3-5-------3-5---3-5-------3-5---3-5---3-5---3-5---5---5---|
D|-----------------------------------------------------------------|
A|-----------------------------------------------------------------|
E|-----------------------------------------------------------------|
-|                                                                 |
e|-----------------------------------------------------------------|
B|-----------------------------------------------------------------|
G|-3-5---3-5-------3-5---3-5-------3-5---3-5---3-5---3-5---5---5---|
D|-----------------------------------------------------------------|
A|-----------------------------------------------------------------|
E|-----------------------------------------------------------------|



e|---------------------------------------------------------------|
B|---------------------------------------------------------------|
G|---------------------------------------------------------------|
D|-----x-----x-x-x-----x-----x-x-x-----x-----x-----x-----x---x---|
A|-1-3-x-1-3-x-x-x-1-3-x-1-3-x-x-x-1-3-x-1-3-x-1-3-x-1-3-x-3-x-1-|
E|---------------------------------------------------------------|
-|                                                               |
e|---------------------------------------------------1---3-------|
B|-3-5---3-5-------3-5---3-5-------3-5---3-5---3-5---------------|
G|-----------------------------------------------------------3---|
D|---------------------------------------------------------------|
A|---------------------------------------------------------------|
E|---------------------------------------------------------------|
-|                                                               |
e|---------------------------------------------------------------|
B|---------------------------------------------------------------|
G|-3-5---3-5-------3-5---3-5-------3-5---3-5---3-5---3-5---5---3-|
D|---------------------------------------------------------------|
A|---------------------------------------------------------------|
E|---------------------------------------------------------------|




riff 2:
(guitar 3:)
e|-----------------------------------------------------------------|
B|-----------------------------------------------3-----------------|
G|-----------------------------------------3h5-------3^------------|
D|-5---5---5---5---5---5---5---5---5---5---------------------------|
A|-----------------------------------------------------------------|
E|-----------------------------------------------------------------|



bridge:
e|-------------|
B|-------------|
G|-----4-----4-|
D|-----3-----3-|
A|-------------|
E|-------------|
-|             |
e|-------------|
B|-------------|
G|-----4-----4-|
D|-------------|
A|-------------|
E|-------------|





ORDER:
intro
main riff x4
verse x8
chorus
main riff x4
verse x8
chorus
main riff x4
verse x8
chorus
main riff x4/riff 2 x2
bass solo
bridge
chorus
main riff x4
verse x8
chorus 
main riff x8/riff 2 x4
End on the first chord/note of the main riff and riff 2.


************************************

| /   slide up
| \   slide down
| h   hammer-on
| p   pull-off
| ~   vibrato
| +   harmonic
| x   Mute note
| b   Bend
| pb  Pre-bend
| br  Bend release
| pbr Pre-bend release
| brb Bend release bend

************************************
Tap to rate this tab
 
# A B C D E F G H I J K L M N O P Q R S T U V W X Y Z