Song name
# A B C D E F G H I J K L M N O P Q R S T U V W X Y Z

Black Keys - Act Nice And Gentle tab

Intro:

e|----------10--------------------------------10------- \
B|--10h12--------12p10----------10-------------------12 \
G|------------------------9h11--------11p9------------- \
D|----------------------------------------------------- \
A|----------------------------------------------------- \
E|----------------------------------------------------- \

Verse

e|----------------------------------------------------- ---- \
B|-----------------------3-----3-----------------------  --- \
G|----------2---4---2-------4--------2-----------------   -- \
D|-----3h4--------------------------------3----------------- \    x2
A|--5------------------------------------------------------- \   /
E|---------------------------------------------------------- \  /

e|-----------------------------------------------------|
B|-----------------------------------------------------|
G|--9--9------9--9--7-9--7--------7--------------------|
D|---------------------------9-------------------------|
A|-----------------------------------------------------|
E|-----------------------------------------------------|

e|-----------------------------------------------------|
B|-----------------------3-----3-----------------------|
G|----------2---4---2-------4--------2-----------------|
D|-----3h4--------------------------------3------------|
A|--5--------------------------------------------------|
E|-----------------------------------------------------|

e|-----------------------------------------------------|
B|-----------------------------------------------------|
G|--9--9------9--9--7-9--7--------7--------------------|
D|---------------------------9-------------------------|
A|-----------------------------------------------------|
E|-----------------------------------------------------|

e|----------------------------------------------------- ---- \
B|-----------------------3-----3-----------------------  --- \
G|----------2---4---2-------4--------2-----------------   -- \
D|-----3h4--------------------------------3----------------- \    x2
A|--5------------------------------------------------------- \   /
E|---------------------------------------------------------- \  /
Tap to rate this tab
# A B C D E F G H I J K L M N O P Q R S T U V W X Y Z