Song name
# A B C D E F G H I J K L M N O P Q R S T U V W X Y Z

Black Keys - Youre The One tab

Help us improve GuitareTab! Take a short survey!
                        + You're the One +
                   The Black Keys - Magic Potion


     Slight Overdrive   
INTRO:                                      
     Am               Bm    C                                
e||-----------------------------------|----------------------|
B||--5----------------7---------------|--------8----7--------|
G||--5----------------7-----9~--------|--------9----7--------|
D||--7----------------9----10---------|-------10----x--------|
A||--7----------------9----10---------|-------10----x--------|
E||--5----------------7-----8---------|--------8----7--------|
          
  |--------------------|----------------------|---------------------|
  |-----7----5---------|----------------------|---------------------|
  |-----7----5---------|----------------------|--7-----9------------|
  |-----9----7~--------|--------------7-------|--9----10------------|
  |-----9----7---------|-----------7----------|--9----10------------|
  |-----7----5---------|-----------5----------|--7-----8------------|

  |-------------------|---------------------|-----------------------------|
  |------7------------|--7----5-------------|-----------------------------|
  |-9----7------------|--7----5-------------|--5------5-------------------|
  |-x----9------------|--9----7~------------|--5h--7--7--5----7----5\-----|
  |-x----9------------|--9----7-------------|--5h--7--7-------7----5\-----|
  |-8----7------------|--7----5-------------|-----------------------------|
   
VERSE: 

  |--------------------|-------------------------|
  |--------------------|-------------------------|
  |----------4---------|-----4-----4--/7~--------|
  |----------5---------|-----5--5--5--/9~--------|
  |-5--------5----5----|--------5--5--/9~--------|
  |-3-------------3----|-------------------------|
   Was_                                Thir_ 

  |--------------------|-------------------------|
  |--------------------|-------------------------|
  |----------4---------|-----4-----4--/7~--------|
  |----------5---------|-----5--5--5--/9~--------|
  |-5--------5----5----|--------5--5--/9~--------|
  |-3-------------3----|-------------------------|
   _teen                                 _my mom......                                      

  |-------------------------|-------------------------|
  |-------------------------|---------------5---------|
  |--5----------5--5--5-----|----5--5--5--------------|
  |--7--------5h7--5--7--5--|--5h7--7--7--------------|
  |--7--------5h7--7--7--7--|--5h7--7--7--------------|
  |--5----------------------|--------------------3----|
     One_                                   I
  |---------------------|----------------------------------|
  |---------------------|----------------------------------|
  |------------5--------|----------------------------------|
  |----------5h7--------|---5-------5----5---5h7--5--------|
  |----------5h7--------|--(7)--7--(7)--(7)--5h7--7--7--5--|
  |-5-------------------|----------------------------------|
    adore.........

  |--------------------|
  |------(5)------(7)--|
  |-------5--------7---|
  |-------7--------9---|
  |-------7--------9---|
  |-3/-5--------7------| 

CHORUS:

  |--------------------|--------------------|
  |--------------------|--------------------|
  |-9--------------9---|-7--------------7---|
  |-10-------------10--|-9--------------9---|
  |-10-------------10--|-9--------------9---|
  |-8--------------8---|-7--------------7---|
    Ohhhhhh......

  |---------------------|----------------------------------|
  |---------------------|----------------------------------|
  |-5----------5--------|----------------------------------|
  |-7--------5h7--------|---5-------5----5---5h7--5--------|
  |-7--------5h7--------|--(7)--7--(7)--(7)--5h7--7--7--5--|
  |-5-------------------|----------------------------------|

LYRICS:

When I was 13
My mom said
Son, you're the one I adore
Now I'm old and wise
When I see your eyes
You're the one I adore
Ohhh, ohhh, ohhh, ohhh
Will you be true?
Till life is up
Be the one I adore
Oh
You're the one I adore
Ohhh, ohhh



That's it.
Related for Youre The One tab