Guitaretab - guitar tabs
Song name
# A B C D E F G H I J K L M N O P Q R S T U V W X Y Z

Black Keys - Have Mercy On Me tab

This is my stab at charting this great cover.  Credit goes to the first guy, who posted
tab earlier, for giving me the starting off point.  Basically this is the intro, and
a bit of the foundation from which the rest of the song works, before and under the 
 I also included the first bit of the solo, but after that I can't make it out by ear
 I've been playing for 8 months and this is the first tab I posted, so I'm looking 
to being flamed for missing a note.

Standard tuning

E --------------------------------------------------------------------------|
B ------------------7-5-3p0-----0h2-----------------------------------------|
G --------------------------0h2-----0h2p0-----------------------------------|
D --------------5-7b---------------------2---------5-5h7-5---5---------5---|
A ----------5h7---------------------------------5h7---------7-------5h7-----|
E -3b-0h5h7---------------------------------5h7-----------------5h7---------|

E --------------------------------------------------------------------------|
B --------------------------------------------------------------------------|
G --------------------------------------------------------------------------|
D -----------------------5-------------------------------------5-----------|
A -7-5----------7-5---5-7---7---------------------5---7-5---5-7---7---------|
E -----7-5-3b-0-----7---------3-5-3-5-3-5-3-5-5h7---0-----7---------3-5-3-5-|

E --------------------------------------------------------------------------|
B -----------------------------------------------3-5-7-5-3-0----------------|
G -----------------------------------------------------------2p0------------|
D ----------------------5-------------7------------------------------------|
A -------5-----------5h7---7h5---------7(4 beats)-----------------7-5---5-7-|
E -3-5h7---7-3-0-5h7-----------7-5p0h5-5------------------------------7-----|
[ Tab from: http://www.guitaretab.com/b/black-keys/93848.html ]
E --------------------------------------------------------------------------|
B --------------------------------------------------------------------------|
G --------------------------------------------------------------------------|
D -5-----------------------------------5----------------------------------5|
A ---7---------------------7-5---57-7p---h7---------------5-----------5-7--|
E -----3-5-3-5-3-5-3-5-3-0-----7-------------3-5-3-5-3-5h7---7-3-0-5-7------|

E --------------------------------------------------------------------------|
B --------------------------------------------------------------------------|
G --------------------------------------------------------------------------|
D ---------9----7----5---7-------------------------------------------------|
A -7-5-----9(4)-7(4)-5(1)-7-7-5---------------------------------------------|
E -----7-5-7----5----3----5-----7-5-3-0-3-0---------------------------------|
(Chorus pattern varies, examples)
E --------------------------------------------------------------------------|
B --------------------------------------------------------------------------|
G --------------------------------------------------------------------------|
D -----------5----------------------------------5h7p5-------------5--------|
A -7-5---5-7---7-----------------------7-5---5-7-------7-------5-7---7-5----|
E -----7---------3-5-3-5-3-5-3-5/7-3-0-----7-------------3-5-7-----------7-5|

E --------------------------------------------------------------------------|
B --------7-5-3-0-----------------------------------------------------------|
G ----------------2-0-------------------------------------------------------|
D ---7----------------2-----------------------------------------------------|
A ---7(4)-------------------------------------------------------------------|
E -7-5----------------------------------------------------------------------|
 (start of solo)
E -3h5-7-3-5-3-5h7-3h0-------3h5--------------------------------------------|
B ---------------------3-3h5-----3-3h5--------------------------------------|
G --------------------------------------------------------------------------|
D -------------------------------------------------------------------------|
A --------------------------------------------------------------------------|
E --------------------------------------------------------------------------|
Related for Have Mercy On Me tab