Song name
# A B C D E F G H I J K L M N O P Q R S T U V W X Y Z

Black Kids - Hit The Heartbreaks tab

#----------------------------------PLEASE NOTE---------------------------------#
#This file is the author's own work and represents their interpretation of the #
#song. You may only use this file for private study, scholarship, or research. #
#------------------------------------------------------------------------------#




Gtr I (E A D G B E) - 'Untitled'

  Gtr I
  Q   Q  Q   Q    Q   Q  Q   Q    Q   S S E Q     S S E Q   E Q   E  H       S S E Q   S S E Q
|--------9--11--|--------9--11--|-9------------|--------------------------|---------------------|
|-9--11---------|-9--11---------|----11p9-7h9--|-11p9-7h9-----------------|-11p9-7h9--11p9-7h9--|
|---------------|---------------|--------------|-----------11-8-----11----|---------------------|
|---------------|---------------|--------------|-----------------11-------|---------------------|
|---------------|---------------|--------------|--------------------------|---------------------|
|---------------|---------------|--------------|--------------------------|---------------------|


   Q  Q   Q  Q     S S E Q   S S E Q     E Q   E  H       S S E Q   S S E Q     Q  Q   Q  Q
|-----9--11--9--|---------------------|----------------|---------------------|-----9--11--9----|
|-11------------|-11p9-7h9--11p9-7h9--|----------------|-11p9-7h9--11p9-7h9--|-11--------------|
|---------------|---------------------|-11-8-----11----|---------------------|-----------------|
|---------------|---------------------|-------11-------|---------------------|-----------------|
|---------------|---------------------|----------------|---------------------|-----------------|
|---------------|---------------------|----------------|---------------------|-----------------|



Duration Legend
---------------
W - whole; H - half; Q - quarter; E - 8th; S - 16th; T - 32nd; X - 64th; a - acciaccatura
+ - note tied to previous; . - note dotted; .. - note double dotted
Uncapitalized letters represent notes that are staccato (1/2 duration)
Irregular groupings are notated above the duration line
Duration letters will always appear directly above the note/fret number it represents the
duration for.  Duration letters with no fret number below them represent rests.  Multi-
bar rests are notated in the form Wxn, where n is the number of bars to rest for.  Low
melody durations appear below the staff

Tablature Legend
----------------
 h   - hammer-on
 p   - pull-off
Tap to rate this tab
 
# A B C D E F G H I J K L M N O P Q R S T U V W X Y Z