Black Lab - Say Goodbye tab

Artist: Black Lab
Song: Say Goodbye
Album: Two Strangers
Tuning: Standard

Intro

e |--------------------------------------------------------------|
B |--------------------------------------------------------------|
G |--10---------------5-------------7--------------3-------------|
D |-------10---(x2)-------5---(x2)------7---(x2)-------3---(x2)--|
A |-8---8----8------3---3---3-----5---5---5------1---1---1-------| 	
E |--------------------------------------------------------------|


Verse 1

e |--------------------------------------------------------------|
B |--------------------------------------------------------------|
G |--10---------------5-------------7--------------3-------------|
D |-------10---(x2)-------5---(x2)------7---(x2)-------3---(x2)--|
A |-8---8----8------3---3---3-----5---5---5------1---1---1-------| 	
E |--------------------------------------------------------------|

How am I supposed to feel? 
You strike at my achilles heel
With everything thatís wrong I canít make right 
If I wait another hundred years
The whispers set against the tears
Iím never gonna be that shining knight. 

Pre - Chorus 

e |------------------|
B |------------------|
G |--7----5---3------|
D |--7----5---3------|
A |--5----3---1------| 	
E |------------------|

I find it hard to be down in this hole
Now I find myself walking down a hard road

Chorus

e |-----------------------|
B |-----------------------|
G |--10----3----7----5----|
D |--10----3----7----5----|
A |--8-----1----5----3----| 	
E |-----------------------|

If I canít say it (ba ba ba ba)
If I canít say goodbye
If I canít say it (ba ba ba ba)
If I canít say goodbye I know you never will 

Verse 2

e |--------------------------------------------------------------|
B |--------------------------------------------------------------|
G |--10---------------5-------------7--------------3-------------|
D |-------10---(x2)-------5---(x2)------7---(x2)-------3---(x2)--|
A |-8---8----8------3---3---3-----5---5---5------1---1---1-------| 	
E |--------------------------------------------------------------|

Now Iím waiting for that setting sun
To burn me down the day Iím done 
And spread my ashes out along the beach. 
But I find these days are pretty long 
This war with you goes on and on 
And I love you as Iím lying through my teeth 

Pre - Chorus 

e |------------------|
B |------------------|
G |--7----5---3------|
D |--7----5---3------|
A |--5----3---1------| 	
E |------------------|

I find it hard to be up on this wall 
Now I find myself trying to make a hard call

Chorus

Bridge

e |---------------------|
B |---------------------|
G |--3---5---7---3------|
D |--3---5---7---3------|
A |--1---3---5---1------| 	
E |---------------------|

And twenty years of hell 
will rain down upon us like frogs upon the pharaohs. 
I have to say goodbye
I have to say goodbye goodbye

Interlude

e |--------------------------------------------------------------|
B |--------------------------------------------------------------|
G |--10---------------5-------------7--------------3-------------|
D |-------10---(x2)-------5---(x2)------7---(x2)-------3---(x2)--|
A |-8---8----8------3---3---3-----5---5---5------1---1---1-------| 	
E |--------------------------------------------------------------|

e |-----------------------|
B |-----------------------|
G |--10----5----7----3----|
D |--10----5----7----3----|
A |--8-----3----5----1----| 	
E |-----------------------|

Chorus

e |--------|
B |--------|
G |--10----|
D |--10----|
A |--8-----| 	
E |--------|

I have to say goodbye


Tap to rate this tab
 
# A B C D E F G H I J K L M N O P Q R S T U V W X Y Z