Black Label Society - Riders Of The Damned tab

This song is played in D standard tuning (2 flats from standard)

[Slide]

[Main Riff]

|---------------------------------|--------------------------------|
|---------------------------------|--------------------------------|
|---------------------------------|--------------------------------|
|---------------------------------|--------------------------------|
|----------------7*-5---------5*--|---------------5/7-5-----5/7----|
|--0-6-5-3-5-3-0------7-5-3-0-----|-0-6-5-3-5-3-0-------7-5-----7-5|
                      o o o o (optional palm mute)

[Chorus]

|------------------------------------------------|x3
|------------------------------------------------|
|-99999--14\12-12121212--------------------------|
|-99999--14\12-12121212-12--8\7-7---8\7-7-7------|
|-77777--12\10-10101010-12--8\7-7---8\7-7-7------|
|-----------------------10--6\5-5-0-6\5-5-5--3*--|

Long May You Run.... (on third time after harmonic play)

|----------------------------------------------------|
|----------------------------------------------------|
|----------------------------------------------------|
|-9-12-8\7-777---------------------------------------|
|-9-12-8\7-777---------------------------------------|
|-7-10-6\5-555-0-10-10-0-10-10-0-10-10-0-10-10-0-10/-|

[Slide as indicated above after -10-]

[Main Riff]~No change

[Chorus]
only difference is instead of the slide after the 3rd time at the end of chorus its played

|---------------------------------------------------------|
|---------------------------------------------------------|
|---------------------------------------------------------|
|-9-12-8\7-777-----------------------------------------14-|
|-9-12-8\7-777-----------------------------------------14-|
|-7-10-6\5-555-0-10-10-0-10-10-0-10-10-0-10-10-0-10-10-12-|

Piano section~ [ can be played on guitar ]

|-------------------------------|x4
|-12-13-10-12-8-10-7-8------7h8-|
|----------------------9~-9-----|
|-------------------------------|
|-------------------------------|
|-------------------------------|

on 4th time
------------------------------------------------|
-12-13-10-12-8-10-------------------------------|
------------------------------------------------|
------------------------------------------------|
------------------------------------------------|
------------------7-6-5-3-3---------------------|

Solo
[play main riff]

[Chorus]
|---------------------------------------------------------|
|---------------------------------------------------------|
|---------------------------------------------------------|
|-9-12-8\7-777-----------------------------------------14-|
|-9-12-8\7-777-----------------------------------------14-|
|-7-10-6\5-555-0-10-10-0-10-10-0-10-10-0-10-10-0-10-10-12-|
|_____________|
 play 3 times   the 0 10 part is extended longer listen too song E chord end
Tap to rate this tab
 
# A B C D E F G H I J K L M N O P Q R S T U V W X Y Z