Song name
# A B C D E F G H I J K L M N O P Q R S T U V W X Y Z

Black Label Society - The Blessed Hell Ride tab

Black Label Society-The Blessed Hellride-The Blessed Hellride

This is my first Tab so don't be mean to me :)
Shouldn't be any big misses, but please mail me if you find any.
                                                
                                                 Callecenterlund@hotmail.com


Main Riff
         
E|---------0---0---|
B|---------0---0---|
G|---------11--10--|
D|---------12--10--|
A|--10/12--12--8---|
E|--8/10---10------|

Ref.

E|--0---0--0---------0---0--0-----|
B|--0---0--0---------0---0--0-----|
G|--11--5--4---------11--5--4-----|
D|--12--7--4---------12--7--4-----|
A|--12--7--5--10/12--12--7--5-----|
E|--10--5--3--8/10---10--5--3-----|

Just Play The Main Riff Under The Solo

The Wierd Part After The Solo Where Zakk Says Some Wierd Shit =)

E|--0---0---|
B|--0---0---|
G|--9---11--|
D|--10--12--|
A|--10--12--|
E|--8---10--|

Outro=Main Riff

Intro 
Vers 
Ref
Vers
Ref
Solo
The Part With The Mysterious Voice=)
Ref
Outro
Tap to rate this tab
# A B C D E F G H I J K L M N O P Q R S T U V W X Y Z