Song name
# A B C D E F G H I J K L M N O P Q R S T U V W X Y Z

Black Lips - Bad Kids tab

Tabbed by: Eric Acosta

Intro

   C              Am              F               G
e|-0-0-00-0-0-0---0-0-00-0-0-0-0--0-0-00-0-0-0-0--3-3-33-5-3-0----------|
B|-1-1-11-3-1-0---1-1-11-3-1-0-1--1-1-11-3-1-0-1--3-3-33-5-3-0-3--------|
G|-0-0-00-0-0-0---2-2-22-2-2-2-2--2-2-22-2-2-2-2--0-0-00-------2--------|
D|-2-2-22-2-2-2---2-2-22-2-2-2-2--3-3-33-3-3-3-3--0-0-00----------------|
A|-3-3-33-3-3-3—--0-0-00-0-0-0-0------------------2-2-22----------------|
E|------------------------------------------------3-3-33----------------|

Chorus

C                            Am
Bad kids, all my friends are bad kids
              F                           G
Product of no dad kids, kids like you and me
C                          Am
Bad kids, ain’t no college grad kids
                F                               G
Livin’ life out on the skids, kids like you and me

Guitar 2
e|---------------------------------------------------------------|
B|---------------------------------------------------------------|
G|---------------------------------------------------------------|
D|-------------------------------2--3-----3---3-4-5-----5---7--5-|  x2
A|--3-----3----------------------------3----3--------5----5------|
E|-----3----3-3--4--5--0--5--0-0---------------------------------|


Verse
                                 --
     C                             |
(In class) we are a minority       |
     Am                            |
(Got no) respect for authority     |
     C                             | x2
(And won’t) play well with others  |
     Am                            |
(And steal) from your mothers...   |
                                 --
Guitar 2
e|---------------------------------|
B|---------------------------------|
G|---------------------------------|
D|---------------------------------|  x4
A|--3-----3----------------------2-|
E|-----3----3-3--4--5--0--5--0-0---|


Pre-chorus

F                F  F# G        G F#
  Well you gotta understand
F                   F     F# G
  We only do these things because all we are is

e|---------------------------------------------------------------------|
B|---------------------------------------------------------------------|
G|---------------------------------------------------------------------|
D|-----3-----------------------------3----3----------------------------|
A|---------------------5-----5-4------------------5-----5--------------|
E|--1----1--1-1--2--3-----3-------1----1----2--3-----3-----------------|


Ending

   Like you and me
e|---5---3---0—-0--|
B|---5---3---0--1--|
G|--------------0—-|
D|--------------2--|
A|--------------3—-|
E|-----------------|

Order:
Intro
Chorus
Verse
Pre-chorus
Chorus
Verse
Pre-chorus
Chorus
Ending
Tap to rate this tab
 
# A B C D E F G H I J K L M N O P Q R S T U V W X Y Z