Song name
# A B C D E F G H I J K L M N O P Q R S T U V W X Y Z

Black Rebel Motorcycle Club - Red Eyes And Tears tab

Red Eyes And Tears
Black Rebel Motorcyle Club
B.R.M.C

tabbed by TomAnthony


This song is played in "open C" tuning
heres how to tune it

e--->---no change------------>----|e
B--->up 1/2 a tone (1 fret)-->----|C
G--->---no change------------>----|G
D--->down 1 tone (2 frets)--->----|C
A--->---no change------------>----|A
E--->down 2 tones (4 frets)-->----|C

            OR
Step
  1-tune the "B" string to the 5th fret of the "G" string
Step
  2-tune the "D" string to the 3rd fret of the "A" string
Step
  3-tune the "E" string down so that it is one octave lower the the
    3rd fret of the "A" string

Legend:
/=slide up
\=slide down
b=means bend,as in tone=full(2 frets),or 1/2=semitone(1 fret)
v=means to release bend back down
()=ghost note
^=hammer on/pull off
~=let ring

Intro
e-----------------------------------------------|
C------------------0----------------------------|
G------------------0----------------------------|
C-6-/12--\10-\3----0----7-/12--\10-\3-----------|
A-x---x----x--x----3----x---x----x--x----3------|
C-6-/12--\10-\3----0----7-/12--\10-\3----0------|

guitar-nothing

 Red Eyes and tears,no more for you my love I fear
 Red Eyes and tears,no more for you my love I fear
      No more fear,no more fear,I'm in love
e---------------------------------|
C---------------------------------|
G---------------------------------|
C----0-0---0-0---0-0-0-0-0-0------|
A----3-3---3-3---3-3-3-3-3-3------|
C-0-0---0-0---0-0-------0---------|

e---------------------------------|
C---------------------------------|
G---------------------------------|
C----0-0---0-0---0-0-0-0-0-0------|
A----3-3---3-3---3-3-3-3-3-3------|
C-0-0---0-0---0-0-------0---------|

Verse
Losing sensation,for you my love I fear
e---------------------------------|
C---------------------------------|
G---------------------------------|
C----0-0---0-0---0-0-0-0-0-0------|
A----3-3---3-3---3-3-3-3-3-3------|
C-0-0---0-0---0-0-------0---------|
I'm losing sensation,for you my love I fear
e---------------------------------|
C---------------------------------|
G---------------------------------|
C----0-0---0-0---0-0-0-0-0-0------|
A----3-3---3-3---3-3-3-3-3-3------|
C-0-0---0-0---0-0-------0---------|
No more fear,no more fear,I'm in love
e---------------------------------|
C--------------------0-0-0-0-0----|
G--------------------0-0-0-0-0----|
C----0-0---0-0---0-0-0-0-0-0-0----|
A----3-3---3-3---3-3-3-3-3-3-3----|
C-0-0---0-0---0-0-----------------|

 Bridge
           I'm in love..                   in love...
                full    1/2                       full     1/2
e-------------------------------------------------------------------------|
C-/7-7-7-6-6---0-0---0--------0------/7-7-7-6-6---0-0---0-------0---------|
G-/8-8-8-7-7---0-3b--0-2b--v--3-2-0--/8-8-8-7-7---0-3b--0-2b--v-3-2-0-----|
C-------------------------------------------------------------------------|
A-------------------------------------------------------------------------|
C-------------------------------------------------------------------------|

I'm in love..
                full    1/2
e----------------------------------------------------------------|
C-/7-7-7-6-6---0-0---0--------0----------------------------------|
G-/8-8-8-7-7---0-3b--0-2b--v--3-2-0------------------------------|
C----------------------------------------------------------------|
A----------------------------------------------------------------|
C----------------------------------------------------------------|

e----------------------------------------------------------------|
C--7-7-7-7-7-7-5-5-3-3-0-0-0--7-7-7-7-7-7-5-5-3-3-0-0-0----------|
G--5-5-5-5-5-5-5-5-5-5-5-5-5--5-5-5-5-5-5-5-5-5-5-5-5-5----------|
C---0-0-0-0--------------------0-0-0-0---------------------------|
A----------------------------------------------------------------|
C----------------------------------------------------------------|

Verse
Losing My reasons to breath, I never lived
e---------------------------------|
C---------------------------------|
G---------------------------------|
C----0-0---0-0---0-0-0-0-0-0------|
A----3-3---3-3---3-3-3-3-3-3------|
C-0-0---0-0---0-0-------0---------|
Losing My reasons to breath, I never lived
e---------------------------------|
C---------------------------------|
G---------------------------------|
C----0-0---0-0---0-0-0-0-0-0------|
A----3-3---3-3---3-3-3-3-3-3------|
C-0-0---0-0---0-0-------0---------|
Never lived,never lived,I'm in love
e---------------------------------|
C---------------------------------|
G---------------------------------|
C----0-0---0-0---0-0-0-0-0-0------|
A----3-3---3-3---3-3-3-3-3-3------|
C-0-0---0-0---0-0-------0---------|

These are my reasons,the truth is never filled
e---------------------------------|
C---------------------------------|
G---------------------------------|
C----0-0---0-0---0-0-0-0-0-0------|
A----3-3---3-3---3-3-3-3-3-3------|
C-0-0---0-0---0-0-------0---------|
These are my reasons,the truth is never filled
e---------------------------------|
C---------------------------------|
G---------------------------------|
C----0-0---0-0---0-0-0-0-0-0------|
A----3-3---3-3---3-3-3-3-3-3------|
C-0-0---0-0---0-0-------0---------|
Never filled,never filled,I'm in love
e---------------------------------|
C--------------------0-0-0-0-0----|
G--------------------0-0-0-0-0----|
C----0-0---0-0---0-0-0-0-0-0-0----|
A----3-3---3-3---3-3-3-3-3-3-3----|
C-0-0---0-0---0-0-----------------|

 Bridge
           I'm in love..                   in love...
                full    1/2                       full     1/2
e-------------------------------------------------------------------------|
C-/7-7-7-6-6---0-0---0--------0------/7-7-7-6-6---0-0---0-------0---------|
G-/8-8-8-7-7---0-3b--0-2b--v--3-2-0--/8-8-8-7-7---0-3b--0-2b--v-3-2-0-----|
C-------------------------------------------------------------------------|
A-------------------------------------------------------------------------|
C-------------------------------------------------------------------------|

I'm in love..
                full    1/2
e----------------------------------------------------------------|
C-/7-7-7-6-6---0-0---0--------0----------------------------------|
G-/8-8-8-7-7---0-3b--0-2b--v--3-2-0------------------------------|
C----------------------------------------------------------------|
A----------------------------------------------------------------|
C----------------------------------------------------------------|

e----------------------------------------------------------------|
C--7-7-7-7-7-7-5-5-3-3-0-0-0--7-7-7-7-7-7-5-5-3-3-0-0-0----------|
G--5-5-5-5-5-5-5-5-5-5-5-5-5--5-5-5-5-5-5-5-5-5-5-5-5-5----------|
C---0-0-0-0--------------------0-0-0-0---------------------------|
A----------------------------------------------------------------|
C----------------------------------------------------------------|

Bridge 2
                            1/2    full      full
e----------------------------------------------------------------|
C---0-----0-0--(0)--0-(0)------0--0-----0-0-------0-0------------|
G---0-----0-0-3^0---0-(0)--10b-0--3b--v-2-0--3b-v-2-0-0-0--0(0)--|
C-3--3---5-6------5--3^0------------------------------6-5--3^0---|
A----------------------------------------------------------------|
C----------------------------------------------------------------|

                            1/2    full      full
e----------------------------------------------------------------|
C---0-----0-0--(0)--0-(0)------0--0-----0-0-------0-0------------|
G---0-----0-0-3^0---0-(0)--10b-0--3b--v-2-0--3b-v-2-0-0-0--0(0)--|
C-3--3---5-6------5--3^0------------------------------6-5--3^0---|
A----------------------------------------------------------------|
C----------------------------------------------------------------|


e--------------------------|
C---0-----0-0--(0)--0-(0)--|
G---0-----0-0-3^0---0-(0)--|
C-3--3---5-6------5--3^0---|
A--------------------------|
C--------------------------|

 Bridge 3
e---------------------------------|
C---------------------------------|
G---------------------------------|
C----0-0---0-0---0-0-0-0-0-0------|
A----3-3---3-3---3-3-3-3-3-3------|
C-0-0---0-0---0-0-------0---------|

e---------------------------------|
C---------------------------------|
G---------------------------------|
C----0-0---0-0---0-0-0-0-0-0------|
A----3-3---3-3---3-3-3-3-3-3------|
C-0-0---0-0---0-0-------0---------|

Verse
Red eyes and tears,no more for you my love I kill
e---------------------------------|
C---------------------------------|
G---------------------------------|
C----0-0---0-0---0-0-0-0-0-0------|
A----3-3---3-3---3-3-3-3-3-3------|
C-0-0---0-0---0-0-------0---------|
Red eyes and tears,no more for you my love I kill
e---------------------------------|
C---------------------------------|
G---------------------------------|
C----0-0---0-0---0-0-0-0-0-0------|
A----3-3---3-3---3-3-3-3-3-3------|
C-0-0---0-0---0-0-------0---------|
Red eyes and tears,Red eyes and tears
e---------------------------------|
C---------------------------------|
G---------------------------------|
C----0-0---0-0---0-0-0-0-0-0------|
A----3-3---3-3---3-3-3-3-3-3------|
C-0-0---0-0---0-0-------0---------|
Red eyes and tears,no more for you my love I kill
e---------------------------------|
C---------------------------------|
G---------------------------------|
C----0-0---0-0---0-0-0-0-0-0------|
A----3-3---3-3---3-3-3-3-3-3------|
C-0-0---0-0---0-0-------0---------|
No more kill,no more kill,I'm in love
e---------------------------------|
C--------------------0-0-0-0-0----|
G--------------------0-0-0-0-0----|
C----0-0---0-0---0-0-0-0-0-0-0----|
A----3-3---3-3---3-3-3-3-3-3-3----|
C-0-0---0-0---0-0-----------------|

Outro
           I'm in love..                   in love...
                full    1/2                       full     1/2
e-------------------------------------------------------------------------|
C-/7-7-7-6-6---0-0---0--------0------/7-7-7-6-6---0-0---0-------0---------|
G-/8-8-8-7-7---0-3b--0-2b--v--3-2-0--/8-8-8-7-7---0-3b--0-2b--v-3-2-0-----|
C-------------------------------------------------------------------------|
A-------------------------------------------------------------------------|
C-------------------------------------------------------------------------|

I'm in love..
                full    1/2
e----------------------------------------------------------------|
C-/7-7-7-6-6---0-0---0--------0----------------------------------|
G-/8-8-8-7-7---0-3b--0-2b--v--3-2-0------------------------------|
C----------------------------------------------------------------|
A----------------------------------------------------------------|
C----------------------------------------------------------------|

e----------------------------------------------------------------|
C--7-7-7-7-7-7-5-5-3-3-0-0-0--7-7-7-7-7-7-5-5-3-3-0-0-0----------|
G--5-5-5-5-5-5-5-5-5-5-5-5-5--5-5-5-5-5-5-5-5-5-5-5-5-5----------|
C---0-0-0-0--------------------0-0-0-0---------------------------|
A----------------------------------------------------------------|
C----------------------------------------------------------------|

                            1/2    full      full
e----------------------------------------------------------------|
C---0-----0-0--(0)--0-(0)------0--0-----0-0-------0-0------------|
G---0-----0-0-3^0---0-(0)--10b-0--3b--v-2-0--3b-v-2-0-0-0--0(0)--|
C-3--3---5-6------5--3^0------------------------------6-5--3^0---|
A----------------------------------------------------------------|
C----------------------------------------------------------------|


e----------------------------------------------------8---------8-|
C---0-----0-0--(0)--0-(0)--0-------------10--------10--------10--|
G---0-----0-0-3^0---0-(0)--0-------9--7^9----9--7^9----9--7^9----|
C-3--3---5-6------5--3^0---0-------------------------------------|
A--------------------------3-------------------------------------|
C--------------------------0-------------------------------------|


e-----------------------------|
C-----------------------------|
G-----------------------------|
C-10-\3---0~~~~~~~------------|
A--x--x---3~~~~~~~------------|
C-10-\3---0~~~~~~~------------|


Fin~

questions,suggestions and complaints to:

                               dirtyaldante@hotmail.com
Tap to rate this tab
# A B C D E F G H I J K L M N O P Q R S T U V W X Y Z