Song name
# A B C D E F G H I J K L M N O P Q R S T U V W X Y Z

Black Rebel Motorcycle Club - Fault Line tab

Black Rebel Motorcycle Club
Fault Line




Main Riff, Try to get the loop:
this is very logic!

Thumb'^' plays bass (there is no more than one guitar ;) )

E|---------3-------------------0----|
B|------------2---------------------|
G|------------------------0---------|
D|-----0-----------0h3--------------|
A|----------------------------------|
E|----------------------------------|
       ^           ^      ^

I've been waitin' on the fault line
Let the needle take me on
I'll be standing with my dyin' bell
If you care to come ..


E|---------3-------------------0----|
B|------------2---------------------|
G|------------------------0---------|
D|-----0-----------0h3--------------|
A|----------------------------------|
E|----------------------------------|
       ^           ^      ^

.. along


E|---------0------------------------|
B|------------1----------------1----|
G|------------------------0---------|
D|-----------------0h2--------------|
A|-----3----------------------------|
E|----------------------------------|
       ^           ^      ^

Racin' with the risin'

E|---------3------------------------|
B|------------0---------------------|
G|-----------------------------0----|
D|------------------------0---------|
A|-----------------0h2--------------|
E|-----3----------------------------|
       ^           ^      ^

tide to my father's

E|---------3-------------------0----|
B|------------2---------------------|
G|------------------------0---------|
D|-----0-----------0h3--------------|
A|----------------------------------|
E|----------------------------------|
       ^           ^      ^ 

door...

Racin' with the risin' tide to my father's door

I've been lyin' in the bright lights
See my shadow from below
Never wanted from another man
Never wanted from my own
Drownin' in the risin' tide in my father's door
Drownin' in the risin' tide in my father's door

Through a window to the last mile
Little picture on the wall
From the banks on the far side
See the lights come ashore
Racin' from the risin' tide to my father's door
Racin' from the risin' tide to my father's door
Racin' with the risin' tide to my father's door


Outro has the same logic than the little chorus


E|---------0------------------------|
B|------------1----------------1----|
G|------------------------0---------|
D|-----------------0h2--------------|
A|-----3----------------------------|
E|----------------------------------|


E|---------3------------------------|
B|------------0---------------------|
G|-----------------------------0----|
D|------------------------0---------|
A|-----------------0h2--------------|
E|-----3----------------------------|


E|---------3-------------------0----|
B|------------2---------------------|
G|------------------------0---------|
D|-----0-----------0h3--------------|
A|----------------------------------|

Paul

paulsaintbris@hotmail.com
Tap to rate this tab
# A B C D E F G H I J K L M N O P Q R S T U V W X Y Z