Song name
# A B C D E F G H I J K L M N O P Q R S T U V W X Y Z

Black Sabbath - Gypsy tab

|------------------------------------------------------------|
|-----------8-------------------------8----------------------|
|--------8--8--10------------------8--8--10------------------|
|--8-----8--6--10-----------8------8--6--10------------------|
|--8-----6------8-----------8------6------8------------------|
|--6------------------------6--------------------------------|


|--------------------------------------------------------------------|
|--------------------------------------------------------------------|
|---------------------3------3/5-------------------------3------3/5--|
|-5--3--2--3-------3--1p0-3--1/3--5--5--3--2--3-------3--1p0-3--1/3--|
|-3--1--0--1----3--1------1-------3--3--1--0--1----3--1------1-------|
|---------------1----------------------------------1-----------------|

"she took me..."
|------------------------------------------------------------|
|------------------------------------------------------------|
|--7-----9-----10-------12---------7-------9-----10------12--|
|--7-----9-----10-------12---------7-------9-----10------12--|
|--5-----7------8-------10---------5-------7------8------10--|
|------------------------------------------------------------|


|----------------------------------------------------------|
|----------------------------------------------------------|
|----------------------------------------------------------|
|-7-------------14------------12-----------12----------12--|
|-7-------------14------------12-----------12----------12--|
|-5------5-7-8/-12-----5-7-8/-10----5-7-8/-14---5-7-8/-10--|


|------------------------------------|
|------------------------------------|
|------------------------------------|
|---------11-----------10------------|
|---------11-----------10------------|
|--5-7-8/-9-----5-7-8/-8-------------|


"so you want to be a gypsy"
|--------------------------||--------------------------------|
|--------------------------||--------------------------------|
|---------------------10---||--9-9-9-9-9---------------------|
|--7------------------10---||--9-9-9-9-9---------------------|
|--7-------------------8---||--7-7-7-7-7---------------------|
|--5-----------------------||--------------------------------|
Tap to rate this tab
 
# A B C D E F G H I J K L M N O P Q R S T U V W X Y Z