Guitaretab - guitar tabs
Song name
# A B C D E F G H I J K L M N O P Q R S T U V W X Y Z

Black Sabbath - War Pigs tab

"War Pigs"
by black sabbath

the right way to play war pigs

r=release
~=vibrato

Intro
e--|-----------|-----------------------|-------------|------|---------------|
b--|-----------|-----------------------|-------------|------|---------------|
g--|-----------|-----------------------|-------------|------|---------------|
d--|-----------|--6--6h-7--6~----------|-6--6h-7---9~|-9-9/9|-7-7/9---------|X3
a--|--7-7-7/5~~|--7--7--7--7~--7-7/5~~-|-7--7-(7)--7~|-7-5/7|-5-5/7---------|
E-0|--0-0-0----|--0-(0)(0)-0~--0-------|-0-(0)-----0~|-0-0--|---------------|


 verse A Verse riff1   riff2    Verse riff 3
e------|-----------|---------|-----12/-----------------------------|
b------|-----------|---------|-----12/-----------------------------|
g------|---4p2p0---|---------|-----12/-----------------------------|
d-7-9--|--------2--|---------|-------------------------------------|
a-5-7--|-----------|--5tr7---|-------------------------------------|
E------|-----------|---------|-0-----------------------------------|
Bridge
e---------|-------------------|------|-------------------------------------|
b---------|-------------------|------|-------------------------------------|
g---------|--------------12~~ |------|-------------------------------------|
d---------|-------------------|------|---------------12tr14----------------|
a-12-14---|-17-16-15~-14------|-12-14|-17-16-15~-14------------------------|
E-10-12---|-15-14-13~-12------|-10-12|-15-14-13~-12------------------------|

e--------|-------------------|-------|-------------|----------------------|
b--------|-------------------|-------|-------------|----------------------|
g--------|---------------12~~|-------|-------------|----------------------|
d--------|-------------------|-------|-------------|----------------------|
a-12-14--|-17-16-15~-14------|-12-14-|-17-16-15~-14|--14/-----------------|
E-10-12--|-15-14-13~-12------|-10-12-|-15-14-13~-12|--12/-----------------|
verse B
e-----------12/-|----------|-------------------------|----------------------|
b-----------12/-|----------|-------------------------|----------------------|
g-----------12/-|----------|-------------------------|----------------------|
d---------------|----------|X3---------2p0-----------|X3--------------------|repeat-whole-verse
a---------------|----------|-------------------------|----------------------|
E-0-0-0-0-------|-0-0-0-3~~|---0-0-0-0------0-0-0-3~~|----Then-play-Bridge--|
solo A
e---------------------------------------------------------------------------|
b---------------------------------------------------------------------------|
g---------------------------------------------------------------------------|
d---------------------------------------------------------------------------|
a-11/12--12/11--11/7--7/5--5/7-7-7/5--5/7--11/7--11/12-12/11--11/12--12h14--|
E------0------0-----0----0------0---0----0-----0------0-----0------0--------|

e------------|-----------------------------12^|------12------12------12-12--|
b------------|-----------------------------12^|----12------12------12---15^-|
g------------|-------------12^----------------|-14^-----14^-----14^---------|
d-------12h14|-------12h14-----------12h14----|-----------------------------|
a-12h14------|-12h14-----------12h14----------|-----------------------------|
E------------|--------------------------------|-----------------------------|
                         solo B
e----|------------------|-----------------------|---------------------------|
b-15^|------------------|------------~~---------|---------------------------|
g----|------------------|-9^-9^-9^-9^--9p7-7h9-9|-----7h9~~-----7h9-9-------|
d----|E-minor-pentatonic|-----------------------|-7h9-------7h9-------------|
a----|------------------|-----------------------|---------------------------|
E----|------------------|-----------------------|---------------------------|

e--------|---------|--------------------|---|-------------------------|-----|
b-------p|-------p-|--------------------|---|-------------------------|-----|
g-7-9-9^-|-7-9-9^--|-9^-9^-9^-9^-9p7-7h9|---|-------------------------|-----|
d--------|--------x6--------------------|-9-|-------------------------|-----|
a--------|---------|--------------------|-7-|-11/12-12/11-11/7-7/5-5/7|-----|
E--------|---------|--------------------|-0-|------0-----0----0---0---|-----|
[ Tab from: http://www.guitaretab.com/b/black-sabbath/25269.html ]
e-----------------|-------------------|--------|----------|--------|--------|
b-----------------|-------------------|--------|----------|--------|--------|
g-----------------|-------------------|--------|----------|--------|--------|
d-----------------|-------------------|-------9|-------9/7|repeatx1|verse-A-|
a--7/5-5/7-7/5-5/7|--5/7-5/7-5/7-5/7~~|-7-7-7-7|-7-7-7-7/5|--------|--------|
E-0---0---0---0---|-0---0---0---0-----|-------0|----------|--------|--------|
play         Outro A
e-------|--------------------|-------|------------|-------------------|-----|
b-------|--------------------|-------|------------|-------------------|-----|
g-------|------7--------7---7|-------|------------|------7-------7---7|-----|
d-bridge|--9-------9------9-X1-9---7~|-7-7-7-7-7-7|--9-------9-----9--|-----|
a-------|-7--7----7---7------|-7-9-5~|-5-5-5-5-5-5|-7--7---7---7------|-----|
E-------|--------------------|---7---|------------|-------------------|-----|

e-------|-----------------------|------|------------|-----------------------|
b-------|-----------------------|------|------------|-----------------------|
g-------|--------7--------7---7-|------|------------|--------7--------7---7-|
d-9-12-9|---9--------9------9---|-9---7|-7-7-7-7-7-7|---9---------9-----9---|
a-7-10-7|-7---7----7---7--------|-7-9-5|-5-5-5-5-5-5|-7---7-----7---7-------|
E-------|-----------------------|---7--|------------|-----------------------|

e-------|-------------|----------------------|---------------------|--------|
b-------|-------------|----------------------|---------------------|--------|
g-------|-------------|--------7-------7---7-|--------5-------5---5|--------|
d-9-12-9|-9-9-9-9-9-9-|---9--------9-----9--X3---7--------7-----7--|X2------|
a-7-10-7|-7-7-7-7-7-7-|-7---7----7---7-------|-5---5----5---5------|--------|
E-------|-------------|----------------------|---------------------|--------|
                                        Outro B
e---------------------|----------------|------------------------------------|
b---------------------|----------------|------------------------------------|
g--------3-------3---3|-4~~------------|------------------------------------|
d---5--------5-----5-X2-4~~-4/5-5--5--4|-9----------------------------------|
a-3---3----3---3------|-2~~-2/3-3--3--2|-7--9-10-9h10-9--9-9----------------|
E---------------------|----------------|-0-------------------10-7-10--------|

e--------------------------------------|------------|-----------------------|
b---------------------------------------------------|-----------------------|
g---------------------------------------------------|-------------------7-7-|
d-9------7-7--7-7---------9-------------------------|-9------7-7--9-9~-9----|
a-7-9-10----------9-------7-9-10-9h10-9--9-9--------|-7-9-10----------------|
E-0-----------------10-7--0------------------10-7-10|-0---------------------|
        solo 2
e------|----------------|--------------|---------|--------------------------|
b------|----------------|--------------|---------|--------------------------|
g-9-9~~|-7-9^-9^-9^-7h9~|-7---7-9-9^-p7|-9-9^rp7-|---9^rp7-9p7---7-9^-9^-9^-|
d------|----------------|---9----------|---------|X9-----------9------------|
a------|----------------|--------------|---------|--------------------------|
E------|----------------|--------------|---------|--------------------------|

e---|----------------|----------------------|-------------------------------|
b---|----------------|----------------------|-------------------------------|
g-9^|----------------|-12-11h12p11-11-9h11p9|-9-7h9p7-----------------------|
d---|-E-minor-Wankery|----------------------|---------10-9h10p9-------------|
a---|----------------|----------------------|-------------------------------|
E---|----------------|----------------------|-------------------------------|
                                     outro B
e------------------|----------------|---------------------------------------|
b------------------|----------------|---------------------------------------|
g------------------|----------------|---------------------------------------|
d-9-7h9p7----------|----------------|-9~~-----------THE-END-----------------|
a---------10-9h10p9|-9-7h9p7--------|-7~~-----------------------------------|
E------------------|---------10-10-7|-0~~-----------------------------------|

BY: SAM AND GRIFFIN.
Related for War Pigs tab
War Pigs chords by Black Sabbath