Song name
# A B C D E F G H I J K L M N O P Q R S T U V W X Y Z

Black Sabbath - Spiral Architect tab

Fig1

|-------0-----------0-----------0-----------0-----|
|-----6---6-------6---6-------6---6-------6---6---|
|---7-------7---7-------7---7-------7---7-------7-|
|-0-----------0-----------0-----------0-----------|
|-------------------------------------------------|
|-------------------------------------------------|

|-------0-----------0-----------0-----------0-----|
|-----8---8-------8---8-------8---8-------8---8---|
|---7-------7---7-------7---7-------7---7-------7-|
|-0-----------0-----------0-----------0-----------|
|-------------------------------------------------|
|-------------------------------------------------|

|-------8-----------8-----------8-----------8-----|
|-----6---6-------6---6-------6---6-------6---6---|
|---7-------7---7-------7---7-------7---7-------7-|
|-0-----------0-----------0-----------0-----------|
|-------------------------------------------------|
|-------------------------------------------------|

|--------------------------------------------------|
|-------0-----------0-----------0-----------0------|
|-----6---6-------4---4-------6---6-------4---4----|
|---7-------7---5-------5---7-------7---5-------5--|
|-0-----------0-----------0-----------0------------|
|--------------------------------------------------|

   fig2
|------------------------------------------------------|
|------------------------------------------------------|
|----7-7-7-7-7-7-7-7-7-7------7-7-7-7-7-7-7-7-7-7------|
|----7-7-7-7-7-7-7-7-7-7------7-7-7-7-7-7-7-7-7-7------|
|-0--5-5-5-5-5-5-5-5-5-5---0--5-5-5-5-5-5-5-5-5-5------|
|------------------------------------------------------|

  fig 3
|---------------------------------------------------------------------------|
|------------------------------------3------------------------------------3-|
|-2-2--5^5-2-5\2---------------------2------5^5-2-5\2---------------------2-|
|----------------7\5-5\3-2h3p0-2h3p0-0----------------7\5-5\3-2h3p0-2h3p0-0-|
|---------------------------------------------------------------------------|
|---------------------------------------------------------------------------|

  fig 4
|-----------------------------------------------------------|
|-----------------------------------------------------------|
|-7-7-7-------------5---4----7---7-7-7-7--------------------|
|-7-7-7---7--7--7---5---4----7---7-7-7-7--------------------|
|-5-5-5---7--7--7---3---2----5---5-5-5-5--------------------|
|---------5--5--5-------------------------------------------|

of all the things i value most...
|--------2--------------5-----------4-----------3-----------------|
|------3---3----------6---6-------5---5-------4---4---------------|
|----2-------2------5-------5---4-------4---3-------3-------------|
|-0---------------0-----------0-----------0-----------------------|
|-----------------------------------------------------------------|
|-----------------------------------------------------------------|

|--------2--------------5-----------4-----------3-----------------|
|------3---3----------6---6-------5---5-------4---4---------------|
|----2-------2------5-------5---4-------4---3-------3-------------|
|-0---------------0-----------0-----------0-----------------------|
|-----------------------------------------------------------------|
|-----------------------------------------------------------------|
Tap to rate this tab
# A B C D E F G H I J K L M N O P Q R S T U V W X Y Z