Guitaretab - guitar tabs
Song name
# A B C D E F G H I J K L M N O P Q R S T U V W X Y Z

Black Sabbath - Hand Of Doom tab

|---------------------------------------------------------| fig 1
|---------------------------------------------------------|
|---------------------------------------------------------|
|---------------------------------------------------------|
|-3-3/5-5-5---5---5-5----------3-3/5-5-5---5---5-5--------|
|---------------------3--4--5----------------------3-4-5--|

fills for fig 1
|--------------------------------------10---------------|
|--------------------------------------13^--------------|
|----------7~~~~~~--------------------------------------|
|-------------------------------------------------------|
|-------------------------------------------------------|
|-------------------------------------------------------|
fig 2
|-------------------------------------------------------|
|-------------------------------------------------------|
|---5--5--5--5-5--3----8--7-----5--5--5--5-5--3----8--7-|
|--5--5--5--5--5--3----8--7----5--5--5--5--5--3----8--7-|
|-3--3--3--3---3--1----6--5---3--3--3--3---3--1----6--5-|
|-------------------------------------------------------|
PM..............            PM...............

fig 3
|-------------------------------------------------------|
|-------------------------------------------------------|
|--5-/-8---7------10---5---3---5------------------------|
|--5-/-8---7---8--10---5---3---5------------------------|
|--3-/-6---5---8---8---3---1---3------------------------|
|--------------6----------------------------------------|


fig 4
|-------------------------------------------------------|
|-------------------------------------------------------|
|--5---8--10--12------5---8--10--12------5---8--10--12--|
|--5---8--10--12------5---8--10--12------5---8--10--12--|
|--3---6---8--10------3---6---8--10------3---6---8--10--|
|-------------------------------------------------------|

[ Tab from: http://www.guitaretab.com/b/black-sabbath/1756.html ]
fig 5
|-----------------------------------|
|-----------------------------------|
|-----------------------------------|
|--11-\10-10-10-10-10-10-10--11-\10-|
|--11-\10-10-10-10-10-10-10--11-\10-|
|--9--\8--8--8--8--8--8--8---9--\8--|
guitar Solo:
|------------------------------------------------------------|
|------------------------------------------------------------|
|-7h8-7~~--7h8h10-10-10p8p7----------------------------------|
|---------------------------8p7----8p7----7-7-8p7----8p7-----|
|-------------------------------10-----10---------10-----10--|
|------------------------------------------------------------|


|------------------------------------------------------------|
|------------------------------------------------------------|
|--------------8p7---7/8-8-8-7h8-8-10p8-7-8p7----7-----------|
|-7h8h10-10-10----10--------------------------10---10p8-8-8--|
|------------------------------------------------------------|
|------------------------------------------------------------|


|--------------------------------------------------------------|
|--------------------------------------------------------------|
|-8p7----7----8p7----7----8p7---8p7----7-8-10-10/12-12-12-12---|
|-----10---10-----10---10-----10----10-------------------------|
|--------------------------------------------------------------|
|--------------------------------------------------------------|


|------------------------------------------------------------|
|------------------------------------------------------------|
|-10\8-8-8p7-7-10p8-----------------------7-7-10p8p7-8p7-7---|
|-------------------8p7--8p7--8p7--7h8h10--------------------|
|----------------------10---10---10--------------------------|
|------------------------------------------------------------|


|------------------------------------------------------------|
|------------------------------------------------------------|
|---------------------------10p8-7-8p7-----------------------|
|-8p7---7-7-8p7--7-7-8p7h10------------10-8-8-8-8/10--10-10--|
|----10--------10--------------------------------------------|
|------------------------------------------------------------|

fig 6

|-------------------------------------------------------|
|-------------------------------------------------------|
|--10----8----------------------------------------------|
|--10----8-----5----------------------------------------|
|--8-----6-----5----------------------------------------|
|--------------3----------------------------------------|
Related for Hand Of Doom tab
Hand Of Doom chords by Black Sabbath