Song name
# A B C D E F G H I J K L M N O P Q R S T U V W X Y Z

Black Sabbath - Sabbra Cadabra tab

Artist: Black Sabbath
Song: Sabra Cadabra
Tabbed by: jjhand
Tuning: All strings down 3 frets (C#)

This was requested, since the other tabs were slightly off. Please rate/comment.

Main Riff (off-beat):
|-------|-----------------|----------------|-------------------|-----------------|
|-----8-|---------------8-|----------------|-------------------|---------------8*|
|-------|-9--9--9---------|-9--9--9------7-|-----------------7-|-----------------|
|-7/9---|-----------7/9---|----------7/9---|-9\7p5-------7/9---|-9\7p5-----7/9*--|
|-------|-----------------|----------------|-------7-7---------|-------7-7-------|
|-------|-----------------|----------------|-------------------|-----------------|
the three starred notes do not occur on last repeat


Solo:
|----------|-----------------|-----------------|---------------|
|----------|-----------------|-----8-----------|---8~----------|
|----------|-----------------|-------9-9---9-7-|-9------9-7----|
|-/7~~~~---|-8\7-5-7-5-7-5~--|-7/9-------------|---------------|
|----------|-----------------|-----------------|---------------|
|----------|-----------------|-----------------|---------------|


|--------------------|------------------------|------------------|
|--------------------|------------------------|-------------8----|
|-----7--------------|------------------------|-----7-9-------9--|
|-7/9---7------------|-7b8r7~~~~--5h7-5-7-5---|-7h9-----7h9------|
|-----------10--7-10-|------------------------|------------------|
|--------------------|------------------------|------------------|


|----------------------|
|----------------------|
|----------------------|
|-8-7-5-7-5-7~~-5------|
|----------------------|
|----------------------|

PreVerse Rhythm:
|------------------|----------------|------------------|------------------|
|------------------|----------------|------------------|------------------|
|-9--9--9----------|-9--9--9----9-9-|-7--6--7--6--7--8-|-9--9--9----------|
|-9--9--9----------|-9--9--9----9-9-|-7--6--7--6--7--8-|-9--9--9----------|
|-7--7--7---7-5/7--|-7--7--7----7-7-|-5--4--5--4--5--6-|-7--7--7---7-5/7--|
|------------------|----------------|------------------|------------------|
|
|Lead Guitar (top notes are overdubs)
|
|-14-15--15--------|-14-15--15------|------------------|------------------|
|-15-17~-17~-------|-15-17~-17~-----|-15-14-15-14------|------------------|
|------------------|----------------|--------------14--|-15\14p12---------|
|------------------|----------------|------------------|----------14-14~--|
|------------------|----------------|------------------|------------------|
|------------------|----------------|------------------|------------------|

Verse - play 2x
|------------------|----------------|-----------------|------------------|
|------------------|----------------|-----------------|------------------|
|-9--9--9----------|-9--9--9----9-9-|-7-7-7-7-7-7-7-7-|-9--9--9----------|
|-9--9--9----------|-9--9--9----9-9-|-7-7-7-7-7-7-7-7-|-9--9--9----------|
|-7--7--7---7-5/7--|-7--7--7----7-7-|-5-5-5-5-5-5-5-5-|-7--7--7---7-5/7--|
|------------------|----------------|-----------------|------------------|

Chorus
|---------------|---------------|
|---------------|---------------|
|---------------|---------------|
|-7----------7/-|-9-------------|
|-7----------7/-|-9-------------|
|-5----------5/-|-7-------------| after this, play Preverse, then repeat chorus

Break Part 1 - play 14x
|----------------------------------|
|------0-0-8-0-----0-0-8-0---------|
|----9---------9-9---------9-------|
|----------------------------------|
|-7--------------7-----------4-5-6-|
|----------------------------------|
 "Lovely Lady ..."

Break part 2:
|----------------|----------------|
|----------------|----------------|
|-5--5-5--5--5-5-|-4--4-4--4--4-4-|
|-5--5-5--5--5-5-|-4--4-4--4--4-4-|
|-3--3-3--3--3-3-|-2--2-2--2--2-2-|
|----------------|----------------|
"I dont want to leave you..."


Break Part 3:
 play 3x                         4th bar
|------------------------------|  --------------------------------|
|------------------------------|  --------------------------------|
|--------------------2--2-0h2--|  ---------------------2-2p0------|
|-2--2-2---x-x-x-x-x-2--2-0h2--|  -2--2-2---x-x-x-x-x--2-----0-1--|
|-2--2-2---x-x-x-x-x-0--0------|  -2--2-2---x-x-x-x-x--0----------|
|-0--0-0---x-x-x-x-x-----------|  -0--0-0---x-x-x-x-x-------------|
"Anymore"


Play Part 1 again

Play Part 2 again

Play Part 3 again with various rhythm ad-libs

Ending (5:32)
|-----------------------------|-----------------------|----------|
|-----------------------------|-----------------------|----------|
|-----------------------------|---------5\4-2-4-2-4---|----------|
|-----2---2p0-2---7-5--7---7\-|---------5\4-2-4-2-4---|----------|
|-----2---2p0-2---7-5--7---7\-|-----------------------|----------|
|-0---------------------------|-----------------------|-0---0----|
Tap to rate this tab
# A B C D E F G H I J K L M N O P Q R S T U V W X Y Z