Song name
# A B C D E F G H I J K L M N O P Q R S T U V W X Y Z

Black Sabbath - Ironman tab

These tabs are correct.

-----------------------------------------------------------------------------------
-----------------------------------------------------------------------------------
-----------------------------------------------------------------------------------  x1
-----------------------------------------------------------------------------------
-----------------------------------------------------------------------------------
-3--/--1-------3--/--1-------3--/--1-----------------------------------------------

-----------------------------------------------------------------------------------
-----------------------------------------------------------------------------------
-----------------------------------------------------------------------------------  x7
-4--7--7-9-9--12-11-12-11-12-7-7-9-9-----------------------------------------------
-2--5--5-7-7--10--9-10--9-10-5-5-7-7-----------------------------------------------
-----------------------------------------------------------------------------------
	
-----------------------------------------------------------------------------------
-----------------------------------------------------------------------------------
-----------------------------------------------------------------------------------  x1
-----------------------------------------------------------------------------------
-----5--------------------------5--------------------------5-----------------------
-7-7---7-6-5-5-5-0-4-5-5-6--7-7---7-6-5-5-5-0-4-5-5-6--7-7---7-6-5-5-5-------------

-----------------------------------------------------------------------------------
-----------------------------------------------------------------------------------
-----------------------------------------------------------------------------------  x4
-4--7--7-9-9--12-11-12-11-12-7-7-9-9-----------------------------------------------
-2--5--5-7-7--10--9-10--9-10-5-5-7-7-----------------------------------------------
-----------------------------------------------------------------------------------

-----------------------------------------------------------------------------------
-----------------------------------------------------------------------------------
-------------------------2-3-4-----------------2-3-4-------------------------------  x2
-9---7---4-4-4---2-2-3-4-------4-4-4---2-2-3-4-------------------------------------
-7---5---2-2-2-5---------------2-2-2-5---------------------------------------------
-----------------------------------------------------------------------------------

-----------------------------------------------------------------------------------
-----------------------------------------------------------------------------------
-----------------------------------------------------------------------------------  x4
-4--7--7-9-9--12-11-12-11-12-7-7-9-9-----------------------------------------------
-2--5--5-7-7--10--9-10--9-10-5-5-7-7-----------------------------------------------
-----------------------------------------------------------------------------------

-----------------------------------------------------------------------------------
-----------------------------------------------------------------------------------
-------------------------2-3-4-----------------2-3-4-------------------------2-3-4-  x1
-9---7---4-4-4---2-2-3-4-------4-4-4---2-2-3-4-------9---7---4-4-4---2-2-3-4-------
-7---5---2-2-2-5---------------2-2-2-5---------------7---5---2-2-2-5---------------
-----------------------------------------------------------------------------------


-----------------------------------------------------------------------------------
-----------------------------------------------------------------------------------
-----------------2-3-4-6-4-------------------6-4-----------------------------------  x1
-4-4-4---2-2-3-4-----------6-5-4-2---------------6-5-4-2---------------------------
-2-2-2-5---------------------------2-2/4-4---------------2-2/4-4-------------------
-----------------------------------------------------------------------------------

SOLO #1  (Sorry, No Solo)

-----------------------------------------------------------------------------------
-----------------------------------------------------------------------------------
-6-4-------------------6-4---------------------------------------------------------  x1
-----6-5-4-2---------------6-5-4-2-------------------------------------------------
-------------2-2/4-4---------------2-2/4-4-----------------------------------------
-----------------------------------------------------------------------------------

-----------------------------------------------------------------------------------
-----------------------------------------------------------------------------------
-----------------2-3-4-----------------2-3-4---------------------------------------  x2
-4-4-4---2-2-3-4-------4-4-4---2-2-3-4---------------------------------------------
-2-2-2-5---------------2-2-2-5-----------------------------------------------------
-----------------------------------------------------------------------------------

-----------------------------------------------------------------------------------
-----------------------------------------------------------------------------------
-----------------------------------------------------------------------------------  x4
-4--7--7-9-9--12-11-12-11-12-7-7-9-9-----------------------------------------------
-2--5--5-7-7--10--9-10--9-10-5-5-7-7-----------------------------------------------
-----------------------------------------------------------------------------------

-----------------------------------------------------------------------------------
-----------------------------------------------------------------------------------
-----------------------------------------------------------------------------------  x1
-----------------------------------------------------------------------------------
-----5--------------------------5--------------------------------------------------
-7-7---7-6-5-5-5-0-4-5-5-6--7-7---7-6-5-5-5-0-4-5-5-6------------------------------

-----------------------------------------------------------------------------------
-----------------------------------------------------------------------------------
-----------------------------------------------------------------------------------  x1
-----------------------------------------------------------------------------------
-----5-----------------------------------------------------------------------------
-7-7---7-6-5-5-5-------------------------------------------------------------------

-----------------------------------------------------------------------------------
-----------------------------------------------------------------------------------
-----------------------------------------------------------------------------------  x1
-----------------------------------------------------------------------------------
-----------------------------------------------------------------------------------
-3--/--1-------3--/--1-------------------------------------------------------------


-----------------------------------------------------------------------------------
-----------------------------------------------------------------------------------
-----------------------------------------------------------------------------------  x2
-----------------------4-5-4h5p4h5p4-----------------------------------------------
-7p5h7---5h7p5---7h5p7---------------5---------------------------------------------
-----------------------------------------------------------------------------------

SOLO #2	  (Sorry, No Solo)

-----------------------------------------------------------------------------------
-----------------------------------------------------------------------------------
-----------------------------------------------------------------------------------  x3
-----------------------4-5-4h5p4h5p4-----------------------------------------------
-7p5h7---5h7p5---7h5p7---------------5---------------------------------------------
-----------------------------------------------------------------------------------

-----------------------------------------------------------------------------------
-----------------------------------------------------------------------------------
-----------------------------------------------------------------------------------  x1
-----------------------------------------------------------------------------------
-7p5h7-----------------------------------------------------------------------------
-----------------------------------------------------------------------------------

If you have any questions you can email me at octopusesfartoo@hotmail.com
Tap to rate this tab
 
# A B C D E F G H I J K L M N O P Q R S T U V W X Y Z