Song name
# A B C D E F G H I J K L M N O P Q R S T U V W X Y Z

Black Sabbath - Heaven And Hell tab

			  Heaven and Hell - Black Sabbath
-------------------------------------------------------------------------------
Tabbed by:aceman3668
Email:aceman3668@comcast.net

Tuning:Standard (Bar the 7th fret)

e|--------------------------7--------7---7---8--7---------------7------------|
B|-0-0---0-0---0-0---0-0------8-10-8---8----------10-8-7-8-7-------8-8---7-8-|
G|-0-0---0-0---0-0---0-0-------------------------------------9---------9-----|
D|---------------------------------------------------9---7------9------------|
A|7----7-----7-----7--------7--------9------10-------------------------10----|
E|---------------------------------------------------------------------------|
                    repeat 4x
e|10-8-7---------/------------/--7------------------8-7----------------------|
B|-------8-10-7--/----7-8-10--/----8-10-8-7---7-8-7-----10-8-7--8-10---7-8---|
G|---------------/--9---------/-------------9---------9--------------9-------|
D|7------9-------/------------/------------------------------10------7-------|
A|---------------/--7---------/--7--------9-----10---------------------------|
E|---------------/------------/----------------------------------------------|
                                 repeat 4x
e|8-7----------10-8-7-------7--/-------------/----------7-------8--7---7-----|
B|---10-8--7----------8--10----/-----7-8-10--/---7-8-10---8-7-------10---8---|
G|-----------9-----------------/--9----------/--9-------------9--------------|
D|9-----10------7-----9--------/-------------/------------9--------------10--|
A|-----------------------------/--7----------/--7---------------10-----------|
E|-----------------------------/-------------/-------------------------------|
                                               fade....
e|------7--8--7--------------------------------------------------------------|
B|7--7-8-------10-8--7----7-8-10--8-7------7-8-------------------------------|
G|-9-------------------9---------------9-7-----------------------------------|
D|---7-----9-----------7-----------------------------------------------------|
A|----------------10-----------9-------7-------------------------------------|
E|---------------------------------------------------------------------------|




| /  slide up
| \  slide down
| h  hammer-on
| p  pull-off
| ~  vibrato
| +  harmonic
| x  Mute note
===============================================================================
Tap to rate this tab
 
# A B C D E F G H I J K L M N O P Q R S T U V W X Y Z