Song name
# A B C D E F G H I J K L M N O P Q R S T U V W X Y Z

Black Sabbath - Looking For Today tab

--------------------************************************---------------------|
--------------------*[Black Sabbath - Living For Today]*---------------------|
--------------------*-----[Sabbath Bloody Sabbath]-----*---------------------|
--------------------*-------[Tabbed by Wes Bain]-------*---------------------|
--------------------*------------[8/03/06]-------------*---------------------|
--------------------************************************---------------------|


[Verse]


e|--------------------------------------------------------|
B|--------------------------------------------------------|
G|----------------------------------------------4--4--4-4-|
D|------4--2--1------------1-2------4--2--1-----4--4--4-4-|
A|---------------2----2/6--------------------2--2--2--2-2-|
E|-2---------------------------2--------------------------|

The last time you play this before the second and third verse, another guitar plays the
during the second measure:

e|--------------------------------------------------------|
B|--------------------------------------------------------|
G|----------------------------------4--2--1---------------|
D|------------------------------------------2-------------|
A|-----------------------------2--------------------------|
E|--------------------------------------------------------|

[Chorus (Clean)]


[Db]                 [Gb]
Everyone just gets on top of you
[Db]                      [Gb]
The pain begins to eat your pride
[Db]                   [Gb]
You can't believe in anything you knew
[E]                            [Gb]
When was the last time that you cried


During the last [Gb], another guitar plays the following:

e|-------------------------------|
B|-------------------------------|
G|-------------------------------|
D|-x-x-4-x-x-4-x-x-4-x-x-4-x-x-4-|
A|-x-x-4-x-x-4-x-x-4-x-x-4-x-x-4-|
E|-x-x-2-x-x-2-x-x-2-x-x-2-x-x-2-|


[Bridge]


e|--------------------------------|
B|--------------------------------|
G|----4--------4-----4-------4----|
D|------4----4-----2---2---2---2--|
A|-2------0-----------------------|
E|---------------4-------2--------|


[Solo]


Improvise in Gb! (blues scale from 4th fret or 14th fret)


[Order]


Verse x6
Chorus x1
Verse x6
Chorus x1
Bridge x6
Verse x6
Bridge x20 (Solo plays over bridge)


[Comments]


There you have it, my first tab. Sorry for not tabbing out to solo, I'm just to lazy. If
an experienced enough player, you can just improvise in Gb. Have fun  with this...I'm
no one else has tabbed it here.

                                 !Enjoy!

----------------------------------W-e-s--------------------------------------
Tap to rate this tab
# A B C D E F G H I J K L M N O P Q R S T U V W X Y Z