Song name
# A B C D E F G H I J K L M N O P Q R S T U V W X Y Z

Black Veil Brides - The Morticians Daughter tab

okay the strumming is very easy to hear and understand. just listen to the song and 
you'll get it down.


[TUNING] STANDARD E

[INTRO] listen for the strum patterns.
e|----------0-----------0-----------0---------0-|
B|----------0-----------0-----------0---------0-|
G|---9------9------6----6-----6-----6----8----8-|
D|-----9----9--------6--6-------7---7------9--9-|
A|-7--------7----4------4-----------7---------9-|
E|----------x-----------x----5------5---7-----7-|

[VERSE]
e|-0----0----0----0------------------|
B|-0----0----0----0------------------|
G|-9----6----6----8------------------| x11
D|-9----6----7----9------------------|
A|-7----4----7----9------------------|
E|-x----x----5----7------------------|

[CHORUS]
e|-0----0----0----0------------------|
B|-0----0----0----0------------------|
G|-9----8----5----6------------------| x3
D|-9----9----6----7------------------|
A|-7----9----6----7------------------|
E|-x----7----4----5------------------|


[VERSE]
e|-0----0----0----0------------------|
B|-0----0----0----0------------------|
G|-9----6----6----8------------------| x5
D|-9----6----7----9------------------|
A|-7----4----7----9------------------|
E|-x----x----5----7------------------|


[CHORUS]
e|-0----0----0----0------------------|
B|-0----0----0----0------------------|
G|-9----8----5----6------------------| x5
D|-9----9----6----7------------------|
A|-7----9----6----7------------------|
E|-x----7----4----5------------------|


[OUTRO] done during the "again, again, again, im home again"
e|-0----0----0----0------------------|
B|-0----0----0----0------------------|
G|-9----6----6----8------------------| x2
D|-9----6----7----9------------------|
A|-7----4----7----9------------------|
E|-x----x----5----7------------------|


[last chord]
e|-0~---|
B|-0~---|
G|-9~---|
D|-9~---|
A|-7~---|
E|-x~---|


Well there it is. I play it this way and it sounds perfect intro and all. have fun!!
Tap to rate this tab
# A B C D E F G H I J K L M N O P Q R S T U V W X Y Z