Guitaretab - guitar tabs
Song name
# A B C D E F G H I J K L M N O P Q R S T U V W X Y Z

Black Warrant - Desi tab

Song:   Desi
Artist: Black Warrant
Site: http://www.BlackWarrant.com
Tabber: Antonio Augusto 


P.S. This is the main riff that goes all the way in the song, use palm muting on power chords.

E||------------------------|-----------------------|------------------------|
B||------------------------|-----------------------|------------------------|
G||------------------------|-----------------------|------------------------|
D||------------------------|------------------3----|--2---------------------|
A||--2----------2----------|--2----------2----3----|--2----------2----------|
E||--0----0--0--0----0--0--|--0----0--0--0----0----|--0----0--0--0----0--0--|
       
[ Tab from: http://www.guitaretab.com/b/black-warrant/77368.html ]
-----------------------|------------------------|-----------------------|
-----------------------|------------------------|-----------------------|
-----------------------|------------------------|-----------------------|
------------------3----|--2---------------------|------------------3----|
--2----------2----3----|--2----------2----------|--2----------2----3----|
--0----0--0--0----0----|--0----0--0--0----0--0--|--0----0--0--0----0----|


------------------------|-----------------------|------------------------|
------------------------|-----------------------|------------------------|
------------------------|-----------------------|------------------------|
--0----------0----------|--0----------0----0----|------------------------|
------------------------|-----------------------|--3----------3----------|
--3----3--3--3----3--3--|--3----3--3--3----3----|--1----1--1--1----1--1--|


-----------------------|------------------------|-----------------------|
-----------------------|------------------------|-----------------------|
-----------------------|------------------------|-----------------------|
------------------3----|--2---------------------|------------------3----|
--3----------3----3----|--2----------2----------|--2----------2----3----|
--1----1--1--1----1----|--0----0--0--0----0--0--|--0----0--0--0----0----|


---------------------||
---------------------||
---------------------||
--2------------------||
--2------------------||
--0------------------||



×
Desi