Black - Abar tab

Song:  Abar
Album: Abar
Band:  Black

After listening the song i found it like this playing a acoustic guitar. hope there'll b fun.

Intro x2

e|--------------------------------------------------|
B|--------------------------------------------------|
G|--------------------------------------------------|
D|---------------------------4-4-0-5-5-4-4----------|
A|-5-5-5-5-5-7-7-7-7-7-5-5-5-2-2-2-3-3-2-2-5--------|
E|-3-3-3-3-3-5-5-5-5-5-3-3-3---------------3--------|


e|--------------------------------------------------|
B|--------------------------------------------------|
G|--------------------------------------------------|
D|---------------------------4-4-0-5-5-4s7----------|
A|-5-5-5-5-5-7-7-7-7-7-5-5-5-2-2-2-3-3-2s5----------|
E|-3-3-3-3-3-5-5-5-5-5-3-3-3------------------------|

Verse (intro is played until the verse ends)

or, u can play like below.................
   Sheet sheser ei vore
e|--------------------------------------------------|
B|--------------------------------------------------|
G|--7-----------------------------------------------|
D|--7----------7---5--------------------------------|
A|--5----------7---5--------------------------------|
E|-------------5---3--------------------------------|

  (the rest of verse is like above)

Chorus
  ow ow ooi shurjer
e|--------------------------------------------------|
B|--------------------------------------------------|
G|-4------------------------------------------------|
D|-4----------5-------------------------------------|
A|-2----------5-------------------------------------|
E|------------3-------------------------------------|

   niche dariye
   dekhte chaaaaaaaai
   amar prithibike......................

Interlude   (starts at 2.00)
  huuuu hu hu hu huuuuuuuuuuuuuuuuuuuuu
e|---------------------------------------------------------------|
B|---------------------------------------------------------------|
G|---------------------------------------------------------------|
D|---------------------------------------------------------------|
A|-9p0-9p0-9p0-9p0-7p0-7p0-7p0-7p0-5p0-5p0-5p0-5p0-12p0-12p0-14--|
E|---------------------------------------------------------------|

  huuu hu hu hoom hoom hu ho ho o o o hooooo
e|---------------------------------------------------------------|
B|---------------------------------------------------------------|
G|---------------------------------------------------------------|
D|---------------------------------------------------------------|
A|-9p0-9p0-9p0-9p0-7p0-7p0-7p0-7p0-5p0-5p0-5p0-5p0-12p0-12p0-14--|
E|---------------------------------------------------------------|

  jekhane chile
e|---------------------------------------------------------------|
B|---------------------------------------------------------------|
G|---------------------------------------------------------------|
D|---------------------------------------------------------------|
A|-9p0-9p0-9p0-9p0-7p0-7p0-7p0-7p0-5p0-5p0-5p0-5p0-12p0-12p0-14--|
E|---------------------------------------------------------------|

  tuuuumi tokhon (not sure about lyric)
e|----------------------------------------------------------------|
B|----------------------------------------------------------------|
G|----------------------------------------------------------------|
D|--------------------------------------------------------------0-|
A|-9p0-9p0-9p0-9p0-7p0-7p0-7p0-7p0-5b---------------5-5-5-5-5-5-0-|
E|----------------------------------------------------------------|

Then, Chorus

And song ends at 

e|--------------------------------------------------|
B|--------------------------------------------------|
G|--4-----------------------------------------------|
D|--4-----------------------------------------------|
A|--2-----------------------------------------------|
E|--------------------------------------------------|
Tap to rate this tab
 
# A B C D E F G H I J K L M N O P Q R S T U V W X Y Z