Song name
# A B C D E F G H I J K L M N O P Q R S T U V W X Y Z

Black - Teman Pengganti tab

Black ft Malique - Teman Pengganti Intro Tab


 |---------------------------------------------------------|
 |---7/11-10-11-10-11---7/11-10-11-10-11--10-8-6-6-4-3-4---|
 |-7------------------7------------------------------------|
 |---------------------------------------------------------|
 |---------------------------------------------------------|
 |---------------------------------------------------------|




 |---------------------------------------------------------|
 |-8-6----------6/8/6------------------------------------3-|
 |-----5-7-8-10-------5-7-8-10-7/8/7-5-7/8-7-5-5/7-5-3-2---|
 |---------------------------------------------------------|
 |---------------------------------------------------------|
 |---------------------------------------------------------|



  
 note : / = slide
Tap to rate this tab
 
# A B C D E F G H I J K L M N O P Q R S T U V W X Y Z