Song name
# A B C D E F G H I J K L M N O P Q R S T U V W X Y Z

Blackfield - Hello tab

                                          Artist - Blackfield
                                       -----------------------
                                             Song - Hello
                                         -------------------
                                          Album - Blackfield
                                       -----------------------

                                           Check Us Out At   
                                    www.rockmusicbackingtracks.com
                                  ----------------------------------

This Is the Slide & Solo
-------------------------

Section 1
Slide
00:27
[------------|------------|------s---|-----s------|---------------]
[-----s------|-----s------|---11-\---|---3-\-11---|---11----s-----]
[---1-\-5----|---5-\-12---|----------|------------|------12-\-5---]
[---1-\-5----|------------|----------|------------|---------------]
[------------|------------|----------|------------|---------------]
[------------|------------|----------|------------|---------------]


[------------|------s---|-----s------|---------------]
[-----s------|---11-\---|---3-\-11---|---11----s-----]
[---5-\-12---|----------|------------|------12-\-5---]
[------------|----------|------------|---------------]
[------------|----------|------------|---------------]
[------------|----------|------------|---------------]


Section 2
 01:13
      s     
[---6-\-8---|---11-10-----s------|-----s-----]
[-----------|----------11-\---6--|---6-\-9---]
[-----------|--------------------|-----------]
[-----------|--------------------|-----------]
[-----------|--------------------|-----------]
[-----------|--------------------|-----------]


Repeat Section 1 
3 more times too solo.

Solo
02:26
      s  
[---12\15--15-15--|----p--p----|---------brp-------|---brp----]
[-----------------|--18-16-15--|--15--15----13-15--|--15--13--]
[-----------------|------------|-------------------|----------]
[-----------------|------------|-------------------|----------]
[-----------------|------------|-------------------|----------]
[-----------------|------------|-------------------|----------]


[----br--------------|----------------|---brp------brp------brp------br----]
[--15---13------p----|--------h---13--|--15--13---15--13---15--13---15-----]
[----------15-15-12--|--12--12-15-----|--------------------------------15--]
[--------------------|----------------|------------------------------------]
[--------------------|----------------|------------------------------------]
[--------------------|----------------|------------------------------------]

               s
[-----15-18--18\20-15-----|---brp-------|-------p------p-----------------]
[--15-----------------16--|--16--15-16--|--16-16-15--15-13----------p----]
[-------------------------|-------------|-------------------15-15-15-12--]
[-------------------------|-------------|--------------------------------]
[-------------------------|-------------|--------------------------------]
[-------------------------|-------------|--------------------------------]


[--------------------]
[--------------------]
[--s--------h------s-]
[--\15-13-13-15-12-\-]
[--------------------]
[--------------------]


Tap to rate this tab
 
# A B C D E F G H I J K L M N O P Q R S T U V W X Y Z