Song name
# A B C D E F G H I J K L M N O P Q R S T U V W X Y Z

Blackfoot - Train Train tab

Help us improve GuitareTab! Take a short survey!
Solo1
e|-------------------------12---------------------------------------|
B|----------------------15b----15-12--------------------------------|
G|-14gb-14-14-14p12--14-------------14b-12-------------------12h14b-|
D|-----------------14----------------------14-14-14p12--12h14-------| repeat
A|----------------------------------------------------14------------|
E|------------------------------------------------------------------|

Solo2
e|----12h15b-12--15b-15b-12---------------------------|
B|-15b---------15----------15-------------------------|
G|---------------------------14-14b-------------------| repeat
D|---------------------------------14-14-14p12--12h14-|
A|--------------------------------------------14------|
E|----------------------------------------------------|

this is my first tab and i did it at like 2am so its probably not the best but it sounds 
with to the solo in the song

Siggy

Hendrix is God
Related for Train Train tab