Song name
# A B C D E F G H I J K L M N O P Q R S T U V W X Y Z

Blackhole - Forever tab

hey. This is my first tab so some things might be wrong. Sounds gd to me anyway. :)


Intro/main riff.

e|------------------------------------------------------------------|
B|------------------------------------------------------------------|
G|------------------------------------------------------------------|
D|------5--------0--2--2----2p0h22----------------------------------|
A|----7---7--5---0--2--2----2p0h22----------------------------------|
E|---------------0--2--2----2p0h22----------------------------------|
-

Prechorus.

e|------------------------------------------|
B|------------------------------------------|
G|---5---2--4-------------------------------|
D|---5---2--4--2----------------------------|
A|---3---0--2--2----------------------------|
E|-------------2----------------------------|

Chorus.

e|----------------------------------------------------------|
B|------------------------------7b9--7---5h7-5-5------------|
G|----------------------------------------------------------|
D|----2-------5---------7-----------------------------------|
A|----2-------5---------7-----------------------------------|
E|----2-x14---5--x14----7-x14-------------------------------|

Outro.

e|------------------------------------------------------------------|
B|------------------------------------------------------------------|
G|-----------------------------5-5-5--5-5----5-5--5-5---------------|
D|---2-2-2--2-2----2-2--2-2----5-5-5--5-5----5-5--5-5---------------|
A|---2-2-2--2-2----2-2--2-2----3-3-3--3-3----3-3--3-3---------------|
E|---2-2-2--2-2----2-2--2-2-----------------------------------------|
   pm---         pm-         pm---         pm-----------------------|


And thats pretty much it apart from a few octaves played over this but if you wanna play 
just figure them out yourself its not that hard.
Thanks:)


http://www.myspace.com/blackhole
http://www.blackholeband.com/
Tap to rate this tab
 
# A B C D E F G H I J K L M N O P Q R S T U V W X Y Z