Song name
# A B C D E F G H I J K L M N O P Q R S T U V W X Y Z

Blackout Sunday - Nowhere To Run tab

Blackout Sunday
No Where to Run
Drop-D Tuning

Main Riff/Verse
E-------------------------------------------------------------------------------------------------|
B-------------------------------------------------------------------------------------------------|
G-------------------------------------------------------------------------------------------------|
D-------------------------------------------------------------------------------------------------|
A------9----7-----10-----10/12--------9---7---10----5---------------------------------------------|
D---0----0----0-------0--------------0---0---0-----0----------------------------------------------|

Chorus
E-------------------------------------------------------------------------------------------------|
B---------------------------------------5V--------------------------------------------------------|
G---------------------------------------------------------------------------------5V--------------|
D--0--0--0-------5P3----0----1------------0--0--0-----5P3-----0----1------------------------------|
A--0--0--0-------5P3----0----1------------0--0--0-----5P3-----0----1------------------------------|
D--0--0--0-------5P3----0----1------------0--0--0-----5P3-----0----1------------------------------|

Solo
E------------------------------------------------------------------------------------------|
B------------------------------------------------------------------------------------------|
G------------------------------------------------------------------------------------------|            X2
D----9--9----7--7--------------------------9--9------7--7----------------------------------|
A----------------------9P7----9/12----------------------------9P7/5------------------------|
D-0--------------------------------------0-------------------------------------------------|

E-------------------------------------------------------------------------------------------|
B-------------------------------------------------------------------------------------------|
G-------------7------7H9/11----------------7------7H9P7-------------------------------------|
D-----9-9-------9---------------------9-9------9-------------7------------------------------|
A-------------------------------------------------------------------------------------------|
D-0-------------------------------0---------------------------------------------------------|

E------------------------------------------------------------------------------------------|
B------------------------------------------------------------------------------------------|
G------------------------------------------------------------------------------------------|
D-----9-9--7-7-----------------------11-------9--------7-----------------------------------|
A-------------------9P7---9/12-------9--------7--------5-----------------------------------|
D--0-------------------------------0--------0--------0-------------------------------------|
BLACKOUT SUNDAY
JIMMY G - GUITARS, BACKING VOCALS
ROB NEWETTE-BASS
PHIL GAMBLE-DRUMS,LEAD VOCALS
Tap to rate this tab
 
# A B C D E F G H I J K L M N O P Q R S T U V W X Y Z