Song name
# A B C D E F G H I J K L M N O P Q R S T U V W X Y Z

Blank Theory - Addicted tab

song:   Addicted
artist: The Blank Theory
tabber: Kenny Burgess
email:  Fat105@aol.com


intro
d-------------------------------|
a-------------------------------|
f-------------------------------|
c-------------------------------|
g-------------------------------|
c-7p0--0-0-0-7p0--0-0-0--8-8-8--|


d-------------------------------|
a-------------------------------|
f-------------------------------|
c-------------------------------|
g-7-0--0-0-0-7-0--0-0-0--8-8-8--|
c-7-0--0-0-0-7-0--0-0-0--8-8-8--|


verse:
d-------------------------------|
a-------------------------------|
f--5--4-3---6---5---------------|
c-------------------------------|
g-------------------------------|
c-------------------------------|


chorus: STRUMS NOT INCLUDED
d-----------------------------|
a-----------------------------|
f-----------------------------|
c-----------------------------|
g-0-------8-------5--------7--|
c-0-------8-------5--------7--|
Tap to rate this tab
 
# A B C D E F G H I J K L M N O P Q R S T U V W X Y Z