Blasted Mechanism - I Believe tab

Band: Blated Mechanism
Song: I Believe
Album: Namaste (2002)

Valdjiu: Kalachakra
Zymon: Guitar

Intro Live: Valdjiu  

e|-----------------------|
B|-----------------------|
G|-----------------------|
D|---2---5-4-2--4h5p4p2--|
A|-0---0-----------------|
E|-----------------------|

Verse: Vadjiu

I believe in the message         
e|---|                           
B|---|                              
G|---|                           
D|---|                           
A|-0-|                           
E|---|                           
                                  
I believe in the power of pray   
e|----|                          
B|----|                          
G|----|                          
D|-2--|                          
A|----|                          
E|----|                          
                                  
I believe in the future          
e|----|                          
B|----|                                     
G|----|                          
D|----|                          
A|-0--|                          
E|----|                          
                                 
I believe in the spiritual world 
e|-------|                       
B|-------|                       
G|-------|                       
D|-5-4-2-|                       
A|-------|                      
E|-------|                    

Verse: Zymon
e|---19(PH)----|
B|-------------|
G|-------------|
D|-------------|
A|-------------|
E|-------------|   

  
Lick: Valdjiu

e|------------------|
B|------------------|
G|------------------|
D|---2---5-4h5p4p2--| *2
A|-0---0------------|
E|------------------|

Indian: Zymon

Ishi, ni, san, shi, go, roku, shichi, hachi
e|-------------------------------------------------------|
B|----------8h10--10-10-10-10--8-8-8-8-------------------|
G|--5h7--7------------------------------7-7-7-7--7h9p5---|
D|-------------------------------------------------------| 
A|-------------------------------------------------------|
E|-------------------------------------------------------|


Techniques
h  --> Hammer On
p  --> Pull Off
PH --> Pinch Harmonic

Song Structure

Intro
Verse x 2
Lick
Verse x2
Indian x8
Verse x2
Indian x8
Djembe Solo (Without Guitar)
Verse x2
Indian x16
Karkow Ends (Only Singing)

This is my first transcription
Please Rate and any question and correction this is my mail
fabricio515_1995@hotmail.com

Video of the song
   Live:
http://www.youtube.com/watch?v=J3jFGF4wxm8
   Official Video:
http://www.youtube.com/watch?v=tpqGBlwO1lc&feature=related

Lyrics
http://www.lyricsvip.com/Blasted-Mechanism/I-Believe-Lyrics.html
Tap to rate this tab
 
# A B C D E F G H I J K L M N O P Q R S T U V W X Y Z