Song name
# A B C D E F G H I J K L M N O P Q R S T U V W X Y Z

Bleed From Within - Colony tab

 Sorry if this is a little weird. Craig (the guitarist) sent me this and it doesnt
 include the tapping and lead stuff. I'm putting this in here how the guitarist
 himself sent me.
This is my first tab so let me know what you think?






Main Riff
C#---------------------------------------------------------------------------------------------------|
G#---------------------------------------------------------------------------------------------------|
E----------------------------------------------------------------------------------------------------|
B----------------------------------------------------------------------------------------------------|
F#---35----------------------00881212-57-22222--22222--22222--00881212-58-33333-33333-33333--00881212|
B-------00000--00000--00000--------------22222--22222--22222--------------33333-33333-33333----------|

        ииии   ииии   ииии   ииииииии    ииии   ииии   ииии   ииииииии    ииии  ииии

C#---------------------------------------------------------------|
G#---------------------------------------------------------------|
E----------------------------------------------------------------|
B----------------------------------------------------------------|
F#----------------------------9-10-9--9---------5-6-5-3-5-0-1-4--|  X3
B---1-0-00-10-12-0----000000--------13-13-10-12------------------|

        ..            ииииии

3rd time, the 0s, 2s and 3s are palm muted chords rather than single notes

fill 2nd and 3rd time

C#--------------------------------------------------|
G#--------------------------------------------------|
E---------------------------------------------------|
B---------------------------------------------------|
F#-----------------------8--------------------------|
B-----8bendupandbackdown--7vibrato--0--3vibrato-----|


Intro to verse


C#----------------------------------|
G#----------------------------------|
E--------------------5555555566666--|
B---66666666677777777---------------|
F#--555555555555555555555555555555--|
B-----------------------------------|

Verse


C#-------------------------------------------------------------------------------------------------|
G#--6666-----6666-----66666------------------------------------------------------------------------|
E---7777-----7777-----77777------------------------------------------------------------------------|
B---7777-----7777-----77777------------------------------------------------------------------------|
F#--5555-----5555-----55555------------------------------------------------------------------------|
B-------0--0-----0--0-------0-0-0--888888888888888888888888877777777-------------------------------|X2

fill 2nd time


C#------------------------------------------------|
G#------------------------------------------------|
E-------------------------------------------------|
B-------------------------------------------------|
F#-------------------4-4--4-5-4-4-----------------|
B----8888-8-8--8888--6-6-------8-7-5-7------------|
                     .
Verse Progression


C#-----------------------------------------------------------------------------------------|
G#-----------------------------------------------------------------------------------------|
E------------------------------------------------------------------------------------------|
B------------------------------------------------------------------------------------------|
F#--555555------5555--5555--5-7-7-7-7-8-8-8--------------------------4-5-4-4---------------| X2
B---------000000----00----00-----------------8888-8-8--8888-8-7-7-77------8-7-5-7----------|
          ииииии    ..    ..

fill 2nd time


C#-------------------------------------------------|
G#-------------------------------------------------|
E--------------------------------------------------|
B--------------------------------------------------|
F#-------------------4-4--4-5-4-4------------------|
B----8888-8-8--8888--6-6-------8-7-3-2-------------|
                     .

Pre chorus fill is just half of verse intro and half of the fill that's in the main riff


Chorus

C#-------------------------------------------------------------------------------------------------|
G#-------------------------------------------------------------------------------------------------|
E--------------------------------------------------------------------------------------------------|
B--------------------------------------------------------------------------------------------------|
F#--------12-----------------------12------------------0-1-0----5-5555555-5-4-44--4-5-4-4----------| X2
B---0-7-8---8-7--3bend-3bend--0-7-8---0----0-7-8-12-8-7-----5---8-8888888-8-7-77-------8-8-5-7-----|
                                                                  иииииии     ..

On the 2nd time just change the rhythm of the 85 chord and stop early for the drum fill


Repeat Main Riff

Repeat Verse Riff

Middle 8 part

C#--------------------------------------------------------------|
G#--------------------------------------------------------------|
E---------------------------------------------------------------|
B------------------------------------13-15-13-0-13-17-13-0------|
F#----00---0000--00---00---0000---00----------------------------|
B-----00---0000--00---00---0000---00----------------------------|
      ..   ииии  ..   ..   ииии   ..

C#-------------------------------------------------------------------------------------------------|
G#-------------------------------------------------------------------------------------------------|
E--------------------------------------------------------------------------------------------------|
B---13-17-13-0-13-17-13-0----13-17-13-0------13-17-13-0----13-15-13-0-13-17-13-0-------------------|
F#------------------------00------------0000------------00-----------------------------------------| X2
B-------------------------00------------0000------------00-----------------------------------------|
                          ..            ииии            ..


Repeat Pre Chorus and Chorus


Post Chorus Riff

C#-----------------------------------------------------------------|
G#-----------------------------------------------------------------|
E------------------------------------------------------------------|
B---000---------------------000------------------------------------|
F#--000---------------------000---------7-7-3-3-6--5---------------|
B---000----------0-0-2-3-7--000---------7-7-3-3-6---0--------------|
    иии                     иии         . . . . .


C#-----------------------------------------------------------------------------------|
G#-----------------------------------------------------------------------------------|
E------------------------------------------------------------------------------------|
B------------------------------------------------------------------------------------|
F#--000-000-0-0-000-000-0-0-000----------000-000-0-0-000-000-0-0--9-10-9--9----------|
B---000-000-0-0-000-000-0-0-000-0-2-3-7--000-000-0-0-000-000-0-0--------13-13-10-12--|  X2
    иии иии . . иии иии . . иии          иии иии . . иии иии . .

2nd time fill

C#------------------------------------|
G#--------------5natural-harmonic-----|
E---------------5natural-harmonic-----|
B---------------5natural-harmonic-----|
F#--7-3-3-6---------------------------|
B---7-3-3-6-----whammy-up-------------|
    . . . .


C#-------------------------------------------------------------------------|
G#-------------------------------------------------------------------------|
E--------------------------------------------------------------------------|
B--------------------------------------------------------------------------|
F#-------------------------------------------------------------------------|
B---00-0--12-13-12-10-12-0---0---7-3-3-6-0--0-2-3-7--00-0-12-13-12-10-12-0-|

-------------------------------|
--------------------5harmonic--|
--------------------5harmonic--|
--------------------5harmonic--|
--------------3-0-0------------|
--0--7-3-3-6--3-0-0------------|
    ..                                               ..                                  . . .



C#-----------------------------------------------------|
G#-----------------------------------------------------|
E------------------------------------------------------|
B------------------------------------------------------|
F#-----------------------------------------------------|
B---00-0--12-13-12-10-12-0---0---7-3-3-6-0--11vibrato--|

----------------------------------------------------------|
----------------------------------------------------------|
----------------------------------------------------------|
----------------------------------------------------------|
--------------------------------------8-------------------|
-00-0-12-13-12-10-12-0--8bendupanddown-7vibrato-0-3pinch--|

    ..                                                  ..

Breakdown

C#----------------------------------------------------------------------------------------|
G#------------------------------------------------------------5harmonic-------------------|
E-------------------------------------------------------------5harmonic-------------------|
B-------------------------------------------------------------5harmonic-------------------|
F#-000-000-0-0-000-000-0-0------000-000-0-0-000-000-0-0-3-0-0-----------------------------|  X2
B--000-000-0-0-000-000-0-0------000-000-0-0-000-000-0-0-3-0-0-----------------------------|
   иии иии . . иии иии . .      иии иии . . иии иии . . . . .
Finish with the 8bendy fill

Play Main Riff slightly differently

Dechristianize riff

C#-------------------------------------------------------|
G#-------------------------------------------------------|
E--------------------------------------------------------|
B---000---------000-----000-------000----0-0-0-----------|
F#--000---------000-----000-------000----0-0-0-----------|
B---000---------000-----000-------000----0-0-0-----------|
    иии         иии     иии       иии    . . .


C#-----------------------------------------------------|
G#-----------------------------------------------------|
E------------------------------------------------------|
B---0-0-----0-0----000------0-0-----0-0-000-0-0--------|
F#--0-0-----0-0----000------0-0-----0-0-000-0-0--------| X2
B---0-0-----0-0----000------0-0-----0-0-000-0-0--------|
    . .     . .    иии      . .     . . иии . .


C#-------------------------------------------------------------------------------------------------|
G#-------13-15-15-------13-15-15-------13-15-11-13-13-------11-13-13-------------------------------|
E--------------------------------------------------------------------------------------------------|
B---0-0--10-12-12--0-0--10-12-12--000--10-12-8--10-10--0-0--8--10-10--0-0-000-0-0------------------|
F#--0-0------------0-0------------000------------------0-0------------0-0-000-0-0------------------|
B---0-0------------0-0------------000------------------0-0------------0-0-000-0-0------------------|
 Repeat till end
Tap to rate this tab
 
# A B C D E F G H I J K L M N O P Q R S T U V W X Y Z