Song name
# A B C D E F G H I J K L M N O P Q R S T U V W X Y Z

Blessthefall - Carry On tab

   Intro 0:00
C#|---------------------------------------------------------------|
G#|------------------------------------------------------8--------|
E |----------------------------------------------7-----------7----|
B |------------------------------------8p5---5-------5------------|
F#|-12p8-------8h12-------8---12---5h8----------------------------|
B |------0-0-0------0-0-0---0----0---------5---5---5---5---5---5--|
         x   x      x   x   x    x         x   x   x   x   x   x


C#|---------------------------------------------------------------|
G#|---------------------------------------------------------------|
E |---------------------------------------------------------------|
B |-7h8p7-7p3---3---3h7---3---5---7-------8p5---5---7---8---7-----|
F#|-----------------------------------5h8-------------------------|
B |-----------3---3-----3---3---3---3---------5---5---5---5-------|
              x   x     x   x   x   x         x   x   x   x


C#|---------------------------------------------------------------|
G#|---------------------------------------------------------------|
E |---------------------------------------------------------------|
B |-----7h8p7-----------------------------------------------------|
F#|-----------8---------------------------------------------------|
B |-5-5-----------------------------------------------------------|
    x x

   0:09
C#|---------------------------------------------------------------|
G#|------------------------------------------------------8--------|
E |----------------------------------------------7-----------7----|
B |------------------------------------8p5---5-------5------------|
F#|-12p8-------8h12-------8---12---5h8----------------------------|
B |------0-0-0------0-0-0---0----0---------5---5---5---5---5---5--|
         x   x      x   x   x    x         x   x   x   x   x   x


C#|---------------------------------------------------------------|
G#|---------------------------------------------------------------|
E |---------------------------------------------------------------|
B |-7h8p7-7p3---3---3h7---3---5---7-------8p5---5---7h8-----------|
F#|-----------------------------------5h8-------------------------|
B |-----------3---3-----3---3---3---3---------5---5---------------|
              x   x     x   x   x   x         x   x 


C#|---------------------------------------------------------------|
G#|---------------------------------------------------------------|
E |---------------------------------------------------------------|
B |---12----12----10----------------------------------------------|
F#|---------------------------------------------------------------|
B |-5----10----10-------------------------------------------------|
    x     x     x 

   x2 0:19
C#|---------------------------------------------------------------|
G#|------------------------------------------------------8--------|
E |----------------------------------------------7-----------7----|
B |------------------------------------8p5---5-------5------------|
F#|-12p8-------8h12-------8---12---5h8----------------------------|
B |------0-0-0------0-0-0---0----0---------5---5---5---5---5---5--|
         x   x      x   x   x    x         x   x   x   x   x   x


C#|---------------------------------------------------------------|
G#|---------------------------------------------------------------|
E |---------------------------------------------------------------|
B |-7h8p7-7p3---3---3h7---3---5---7-------8p5---5---7h8-----------|
F#|-----------------------------------5h8-------------------------|
B |-----------3---3-----3---3---3---3---------5---5---------------|
              x   x     x   x   x   x         x   x 


C#|---------------------------------------------------------------|
G#|---------------------------------------------------------------|
E |---------------------------------------------------------------|
B |---12----12----10----10----------------------------------------|
F#|---------------------------------------------------------------|
B |-5----10----10----10----10-------------------------------------|
    x     x     x     x     x

   0:36
C#|---------------------------------------------------------------|
G#|------------------------------6~-----6~------------------------|
E |---------------------------9~----9~--9~------------------------|
B |-0~----------------------------------0~------------------------|
F#|-0~------------------------------------------------------------|
B |-0~------------------------------------------------------------|



C#|---------------------------------------------------------------|
G#|---------------------------------------------------------------|
E |---------------------------------------------------------------|
B |---------------------------------------------------------------|
F#|-555-5-5-555-5-5-000-0-0---------------------------------------|
B |-888-8-8-888-8-8-000-0-0-0-------------------------------------|
    xxx x x xxx x x xxx x x

   0:46
C#|---------------------------------------------------------------|
G#|---------------------------------------------------------------|
E |---------------------------------------------------------------|
B |-00---00---000-0---0---0---0---0-0-0-0---000-0-0-0-0-0-0-------|
F#|-00---00---000-0---0---0---0---0-0-0-0---000-0-0-0-0-0-0-------|
B |-00---00---000-0---0---0---0---0-0-0-0---000-0-0-0-0-0-0-------|
    xx   xx   xxx x   x   x   x   x x x x   xxx x x x x x x


C#|---------------------------------------------------------------|
G#|---------------------------------------------------------------|
E |---------------------------------------------------7-----------|
B |-00---00---000-0---0---0---0---0-0-0-0---000-0-0-0-------------|
F#|-00---00---000-0---0---0---0---0-0-0-0---000-0-0-0-5-----------|
B |-00---00---000-0---0---0---0---0-0-0-0---000-0-0-0-------------|
    xx   xx   xxx x   x   x   x   x x x x   xxx x x x
 
   o:54
C#|---------------------------------------------------------------|
G#|---------------------------------------------------------------|
E |-7h10p7p0----------------15---12---12h14---15---14h15p14p12----|
B |----------7h8p7----0-0-0----0----0-------0----0----------------|
F#|----------------10---------------------------------------------|
B |---------------------------------------------------------------|
                        x x    x    x       x    x


C#|---------------------------------------------------------------|
G#|---------------------------------------------------------------|
E |-----8-----10--------------------------------------------------|
B |-0-0---0-0----0-0-0--------------------------------------------|
F#|---------------------------------------------------------------|
B |---------------------------------------------------------------|
    x x   x x    x x x
 

C#|---------------------------------------------------------------|
G#|---------------------------------------------------------------|
E |-7h10p7p0----------------12---14---11-----12---14---11---12----|
B |----------7h8p7----0-0-0----0----0----0-0----0----0----0----0--|
F#|----------------10---------------------------------------------|
B |---------------------------------------------------------------|



C#|---------------------------------------------------------------|
G#|---------------------------------------------------------------|
E |-14---8h11p8/7-------------------------------------------------|
B |----0----------8-------5-------10------------------------------|
F#|---------------8-(x16)-5-(x8)--10-(x4)-------------------------|
B |---------------8-------5-------10------12/---------------------|


   x2 1:07
C#|---------------------------------------------------------------|
G#|------------------------------------------------------8--------|
E |----------------------------------------------7-----------7----|
B |------------------------------------8p5---5-------5------------|
F#|-12p8-------8h12-------8---12---5h8----------------------------|
B |------0-0-0------0-0-0---0----0---------5---5---5---5---5---5--|
         x   x      x   x   x    x         x   x   x   x   x   x


C#|---------------------------------------------------------------|
G#|---------------------------------------------------------------|
E |---------------------------------------------------------------|
B |-7h8p7-7p3---3---3h7---3---5---7-------8p5---5---7h8-----------|
F#|-----------------------------------5h8-------------------------|
B |-----------3---3-----3---3---3---3---------5---5---------------|
              x   x     x   x   x   x         x   x 


C#|---------------------------------------------------------------|
G#|---------------------------------------------------------------|
E |---------------------------------------------------------------|
B |---12----12----10----10----------------------------------------|
F#|---------------------------------------------------------------|
B |-5----10----10----10----10-------------------------------------|
    x     x     x     x     x

   x2 1:24
C#|---------------------------------------------------------------|
G#|---------------------------------------------------------------|
E |-----------10--------------------------------------9-----------|
B |-12-8-12-8----8-12-8-12-8-12-8-10-8-12-8-10-7-10-7---7-10-7-10-|
F#|---------------------------------------------------------------|
B |---------------------------------------------------------------|



C#|---------------------------------------------------------------|
G#|---------------------------------------------------------------|
E |------------------------------12----------------------12-------|
B |-7-10-7-12-7-10-7-14-10-14-10----10-14-10-14-10-14-10----10-14-|
F#|---------------------------------------------------------------|
B |---------------------------------------------------------------|



C#|---------------------------------------------------------------|
G#|---------------------------------------------------------------|
E |---------------------------------------------------------------|
B |-10---12-(x16)-------------------------------------------------|
F#|---------------------------------------------------------------|
B |---------------------------------------------------------------|


   1:41
C#|---------------------------------------------------------------|
G#|---------------------------------------------------------------|
E |-/7---9-10-9---17---17b^---------------------------------------|
B |---------------------------------------------------------------|
F#|---------------------------------------------------------------|
B |---------------------------------------------------------------|


   1:50
C#|---------------------------------------------------------------|
G#|---------------------------------------------------------------|
E |---------------------------------------------------7-----------|
B |-00---00---000-0---0---0---0---0-0-0-0---000-0-0-0-------------|
F#|-00---00---000-0---0---0---0---0-0-0-0---000-0-0-0-5-----------|
B |-00---00---000-0---0---0---0---0-0-0-0---000-0-0-0-------------|
    xx   xx   xxx x   x   x   x   x x x x   xxx x x x
 
   x2 1:54
C#|---------------------------------------------------------------|
G#|---------------------------------------------------------------|
E |-7h10p7p0----------------15---12---12h14---15---14h15p14p12----|
B |----------7h8p7----0-0-0----0----0-------0----0----------------|
F#|----------------10---------------------------------------------|
B |---------------------------------------------------------------|
                        x x    x    x       x    x


C#|---------------------------------------------------------------|
G#|---------------------------------------------------------------|
E |-----8-----10--------------------------------------------------|
B |-0-0---0-0----0-0-0--------------------------------------------|
F#|---------------------------------------------------------------|
B |---------------------------------------------------------------|
    x x   x x    x x x
 

C#|---------------------------------------------------------------|
G#|---------------------------------------------------------------|
E |-7h10p7p0----------------12---14---11-----12---14---11---12----|
B |----------7h8p7----0-0-0----0----0----0-0----0----0----0----0--|
F#|----------------10---------------------------------------------|
B |---------------------------------------------------------------|



C#|---------------------------------------------------------------|
G#|---------------------------------------------------------------|
E |-14---8h11p8/7-------------------------------------------------|
B |----0----------------------------------------------------------|
F#|---------------------------------------------------------------|
B |---------------------------------------------------------------|


   x2 2:19
C#|---------------------------------------------------------------|
G#|---------------------------------------------------------------|
E |-----------10--------------------------------------9-----------|
B |-12-8-12-8----8-12-8-12-8-12-8-10-8-12-8-10-7-10-7---7-10-7-10-|
F#|---------------------------------------------------------------|
B |---------------------------------------------------------------|



C#|---------------------------------------------------------------|
G#|---------------------------------------------------------------|
E |------------------------------12----------------------12-------|
B |-7-10-7-12-7-10-7-14-10-14-10----10-14-10-14-10-14-10----10-14-|
F#|---------------------------------------------------------------|
B |---------------------------------------------------------------|



C#|---------------------------------------------------------------|
G#|---------------------------------------------------------------|
E |---------------------------------------------------------------|
B |-10---12-(x16)-------------------------------------------------|
F#|---------------------------------------------------------------|
B |---------------------------------------------------------------|

 
   2:37
C#|---------------------------------------------------------------|
G#|---------------------------------------------------------------|
E |-/7---9-10-9---17---17b^---------------------------------------|
B |---------------------------------------------------------------|
F#|---------------------------------------------------------------|
B |---------------------------------------------------------------|


   2:45
C#|---------------------------------------------------------------|
G#|--------This bend requires whammy or floating trem-------------|
E |---------------------------|-----------------------7-----------|
B |-00---00---000-0---0---0---|---0-0-0-0---000-0-0-0-------------|
F#|-00---00---000-0---0---0---v---0-0-0-0---000-0-0-0-5-----------|
B |-00---00---000-0---0---0---0b--0-0-0-0---000-0-0-0-------------|
    xx   xx   xxx x   x   x       x x x x   xxx x x x
 

C#|---------------------------------------------------------------|
G#|---------------------------------------------------------------|
E |---------------------------------------------------------------|
B |-00---00---000-0---0---0---0---0-0-0-0---000-0-0-0-0-0-0-------|
F#|-00---00---000-0---0---0---0---0-0-0-0---000-0-0-0-0-0-0-------|
B |-00---00---000-0---0---0---0---0-0-0-0---000-0-0-0-0-0-0-------|
    xx   xx   xxx x   x   x   x   x x x x   xxx x x x x x x


C#|---------------------------------------------------------------|
G#|---------------------------------------------------------------|
E |---------------------------------------------------7-----------|
B |-00---00---000-0---0---0-------0-0-0-0---000-0-0-0-----0~------|
F#|-00---00---000-0---0---0-------0-0-0-0---000-0-0-0-5---0~------|
B |-00---00---000-0---0---0---0b--0-0-0-0---000-0-0-0-----0~------|
    xx   xx   xxx x   x   x       x x x x   xxx x x x
Tap to rate this tab
# A B C D E F G H I J K L M N O P Q R S T U V W X Y Z