Song name
# A B C D E F G H I J K L M N O P Q R S T U V W X Y Z

Blind Guardian - Otherland tab

Help us improve GuitareTab! Take a short survey!
-------------------------------------------------------------------------------
			     Otherland - Blind Guardian
-------------------------------------------------------------------------------
Tabbed by: Kevin   (venustraphobia77) <- AIM SN
Tuning: Standard

Seems right to me, all Cmin Pentatonic, which seems natural for a band such as this.

*I believe the rest of the song is in Cminor (Aeolian)*
e|------------------------------------------------------------------------------|
B|------------------------------------------------------------------------------|
G|------------------------------------------------------------------------------|
D|---------------------------------8-(pinch)------------------------------------|
A|----------------------------8-10----------------------------------------------|
E|---8---8-8---8-8-----11-11----------------------------------------------------|
  PM  .      .   .      .   .           .     .
e|------------------------------------------------------------------------------|
B|------------------------------------------------------------------------------|
G|------------------------------------------------------------------------------|
D|----------------------------8-------------------------------------------------|
A|------------------------------10-8-(pinch)------------------------------------|
E|---8---8-8---8-8-----11-11----------------------------------------------------|
  PM  .      .   .      .   .           .     .
Related for Otherland tab