Song name
# A B C D E F G H I J K L M N O P Q R S T U V W X Y Z

Blind Guardian - The Bards Song tab

#----------------------------------PLEASE NOTE---------------------------------#
#This file is the author's own work and represents their interpretation of the #
#song. You may only use this file for private study, scholarship, or research. #
#------------------------------------------------------------------------------#

THE BARD'S SONG
As recorded by Blind Guardian
(From the 1992 Album SOMEWHERE FAR BEYOND)


Transcribed by g0llum

 

 

Gtr I (D# G# C# F# A# D#) - 'Guitar #1'
Gtr II (D# G# C# F# A# D#) - 'Guitar #2'


 Intro
  Q=130
 4/4
  Gtr I
  H.      Q    E E Q  Q  E E   Q  Q  Q  Q    Q  E E E E Q
|---------0--|---------------|-------------|------------0--|
|------------|-3-1-0--0--1-0-|----0--------|-1--3-1-0h1----|
|------------|---------------|-0-----2--0--|---------------|
|------------|---------------|-------------|---------------|
|---------0--|---------------|-------------|-0----------0--|
|------------|--------3------|----0--------|---------------|


  E E Q  Q  E E   Q  Q   Q  Q    Q   +H     Q     E E Q  Q   E E
|---------------|--------------|------------0--|-----------------|
|-3-1-0--0--1-0-|----0---------|---------------|--3-1-0--0---1-0-|
|---------------|-0------2--0--|-2---(2)-------|-----------------|
|---------------|--------------|---------------|-----------------|
|---------------|--------------|-0---(0)----0--|-----------------|
|--------3------|----0---------|---------------|---------3-------|
|
|                                           Gtr II
| W                    W         H.         Q     E E Q  Q   Q
|---------------|--------------|------------8--|-10-8-7--7-------|
|---------------|--------------|---------------|------------10---|
|---------------|--------------|---------------|-----------------|
|---------------|--------------|---------------|-----------------|
|---------------|--------------|---------------|-----------------|
|---------------|--------------|---------------|-----------------|


  Q  Q   Q   Q    Q  E E  E E Q     E E Q  Q   E E   Q  Q  Q    Q
|---------------|-------------0--|-----------------|---------------|
|----0----------|-1--3-1--0h1----|--3-1-0--0---1-0-|----0----------|
|-0------2---0--|----------------|-----------------|-0-----2----0--|
|---------------|----------------|-----------------|---------------|
|---------------|-0-----------0--|-----------------|---------------|
|----0----------|----------------|---------3-------|----0----------|
|
| Q  Q   E E Q    Q  Q    Q   Q     E E Q  Q   Q     Q  Q  E  E Q
|----------7-8--|-7--8---10---8--|-10-8-7--7-------|------------7--|
|-8--8--10------|----------------|------------10---|-8--8--8-10----|
|---------------|----------------|-----------------|---------------|
|---------------|----------------|-----------------|---------------|
|---------------|----------------|-----------------|---------------|
|---------------|----------------|-----------------|---------------|


   H     H      H     H       +W            W
|-------------|------------|-------------|-----------|
|--5-----3----|-1-----0----|--(0)--------|-----------|
|-------------|------------|-------------|--0--------|
|-------------|------------|-------------|-----------|
|--0----------|------------|-------------|-----------|
|-------------|-------3----|--(3)--------|--0--------|
|
|                     ~~~~~~~~~~~~
|  H     H      H     H       +W            H     H
|-12----10----|-8----------|-------------|-----------|
|-------------|------12----|-(12)--------|-12----10--|
|-------------|------------|-------------|-----------|
|-------------|------------|-------------|-----------|
|-------------|------------|-------------|-----------|
|-------------|------------|-------------|-----------|


                               1. Verse
  +H      H       +W            Q.   Q.   Q    Q.   Q.   Q
|--------------|-------------||--------------|--------------|
|--------------|-------------||-5------------|-----------3--|
|-(0)-----2----|--(2)--------||------4----5--|-4----5-------|
|--------------|-------------||--------------|--------------|
|---------0----|--(0)--------||-0------------|--------------|
|-(0)----------|-------------||--------------|-3------------|
|
|         ~~~~~~~~~~~~
|  H      H       +W            Q.   Q.   Q    Q.   Q.   Q
|--------------|-------------||--------------|--------------|
|--8-----10----|-(10)--------||--------------|--------------|
|--------------|-------------||------4----5--|-4----5----4--|
|--------------|-------------||-7------------|--------------|
|--------------|-------------||--------------|--------------|
|--------------|-------------||--------------|--------------|


  Q.   Q.       Q     Q.   Q.   Q    Q.   Q.   Q    Q.   Q.   Q
|-------------------|--------------|--------------|--------------|
|-------------------|--------------|-5----3-------|-----------3--|
|-4----2--------0---|-5----4----5--|-----------5--|-4----5-------|
|-------------------|--------------|--------------|--------------|
|-------------------|-0------------|-0------------|--------------|
|-0-----------------|--------------|--------------|-3------------|
|
| H       +E  E E E   W              Q.   Q.   Q    Q.   Q.   Q
|-------------------|--------------|--------------|--------------|
|-------------------|--------------|--------------|--------------|
|-------------------|--------------|------4----5--|-4----5----4--|
|-5-------(5)-5-7-9-|-7------------|-7------------|--------------|
|-------------------|--------------|--------------|--------------|
|-------------------|--------------|--------------|--------------|


  Q.   Q.       Q     Q.      Q.   Q    Q.   Q.   Q     Q.   Q.   Q
|-------------------|-----------------|--------------|----------------|
|-------------------|-----------------|-5------------|------------3---|
|-4----5--------4---|-5-------4----5--|------4----5--|--4----5--------|
|-------------------|-----------------|--------------|----------------|
|-------------------|-0---------------|-0------------|----------------|
|-0-----------------|-----------------|--------------|--3-------------|
|
| H       +E  E E E   E. E. E H         Q.   Q.   Q     Q.   Q.   E E
|-------------------|-----------------|--------------|----------------|
|-------------------|-----------------|-5----6----8--|-10----8----8-6-|
|-----------------4-|-5--4------------|--------------|----------------|
|-5-------(5)-5-7---|-------5-7-------|--------------|----------------|
|-------------------|-----------------|--------------|----------------|
|-------------------|-----------------|--------------|----------------|


                                     1. Bridge
  Q.   Q.   Q    S S S H.      +S     H    H      H    H
|--------------|-------------------||-----------|-----------|
|-----------3--|-5h6p5p3-------(3)-||-1----0----|------0----|
|-4----5-------|-------------------||-----------|-2---------|
|--------------|-0-----------------||-----------|-----------|
|--------------|-------------------||-3----2----|-0----2----|
|-0------------|-------------------||-----------|-----------|
|
| Q.   Q.   Q    S S S H.      +S     H    H      H    H
|--------------|-------------------||-----------|-----------|
|-3----1----3--|-------------------||-----------|-----------|
|--------------|-------------------||-5----4----|-2----4----|
|--------------|-2h3p2p0-------(0)-||-----------|-----------|
|--------------|-------------------||-----------|-----------|
|--------------|-------------------||-----------|-----------|


  Q   +E  E Q   +E  E   Q   +E  E Q   Q
|---------------------|------------------||
|-1---(1)-1-0---(0)-0-|-----------0------||
|---------------------|-2---(2)-2-----0--||
|---------------------|------------------||
|-3---(3)---2---(2)---|-0---(0)-0--------||
|---------------------|------------------||
|
| Q.      E Q.      E   Q.   E  Q   Q
|---------------------|------------------||
|---------------------|------------------||
|-5-------5-4-------4-|-2-------4--------||
|---------------------|------2------5----||
|---------------------|------------------||
|---------------------|------------------||


 1. Refrain
  Q  Q  Q  Q     Q  Q   Q.     E
|----------0--|---------1------0-------|
|-3-----3-----|--1---------------------|
|----2--------|-----2------------------|
|-0-----------|---------0--------------|
|----------0--|------------------------|
|-------------|------------------------|
|
| Q  Q  Q  Q     Q  Q   Q   S  S S +S
|-------------|------------------------|
|-------------|------------------------|
|-7-----7--9--|--------10---9-10-9-(9)-|
|----7--------|-10--7------------------|
|-------------|------------------------|
|-------------|------------------------|


  Q  Q   Q  Q     Q.   E Q  Q     Q  Q   Q.   E   Q   H    Q
|----0---------|--1----0----0--|---------1----0-|-----5----5----|
|-3------1-----|---------3-----|--1-------------|-3-------------|
|-----------2--|---------------|-----2----------|---------------|
|--------------|--0------------|---------0------|-----3----3----|
|----0---------|------------0--|----------------|---------------|
|--------------|---------------|----------------|---------------|
|
| Q  Q   Q  Q     Q.   E Q  Q     Q  Q   Q.   E   Q   H    E  E
|--------------|---------------|----------------|---------------|
|--------------|---------------|----------------|----10----8-10-|
|-7--9---------|-10----9-7--9--|--------10----9-|-7-------------|
|-------10--7--|---------------|-10--7----------|---------------|
|--------------|---------------|----------------|---------------|
|--------------|---------------|----------------|---------------|


  H    +Q    Q    E E E E E E Q    +Q     H     Q        H    Q  Q
|-7----(7)------|-------1-0h1----|--------------------|----------------|
|------------3--|-----3-------3--|-(3)----------------|----------------|
|---------------|---2------------|--------------------|----------------|
|-5----(5)---0--|-0--------------|--------3-----3-----|--5----5--0-----|
|---------------|----------------|--------------------|----------------|
|---------------|----------------|--------------------|----------------|
|
| H     E  E Q    E E E E E E Q     E  E  H     E   E    H    Q  S  E.
|---------------|-----3-5-3-5----|--------------------|----------------|
|-8-------------|-5-6---------6--|-10--8-10----10-/12-|-12----8--8h10--|
|------10--9-7--|----------------|-------------10-/12-|-12-------------|
|---------------|----------------|--------------------|----------------|
|---------------|----------------|--------------------|----------------|
|---------------|----------------|--------------------|----------------|


   +H.        Q     Q   Q   Q  Q     Q  Q   Q.   E   Q  Q   Q  Q
|-----------------|------------0--|---------1----0-|----0---------|
|-----------------|-3-------3-----|--1-------------|-3------1-----|
|-----------------|-----2---------|-----2----------|-----------2--|
|--(0)--------0---|-0-------------|---------0------|--------------|
|-----------------|------------0--|----------------|----0---------|
|-----------------|---------------|----------------|--------------|
|
|  +H.        Q     Q.    E Q  Q     Q  Q   Q.   E   Q  Q   Q  Q
|-----------------|---------------|----------------|--------------|
|-(10)------(10)--|---------------|----------------|--------------|
|-------------7---|-7-------7--9--|--------10----9-|-7--9---------|
|-----------------|-------7-------|-10--7----------|-------10--7--|
|-----------------|---------------|----------------|--------------|
|-----------------|---------------|----------------|--------------|


   Q.   E Q  Q     Q  Q   Q.   E   Q   Q  Q    Q       Q   Q  Q  Q
|--1----0----0--|---------1----0-|-----------------|----------------|
|---------3-----|--1-------------|-3------1--------|-------1-----1--|
|---------------|-----2----------|-------------1---|----------1-----|
|--0------------|---------0------|-----3-----------|---3------------|
|------------0--|----------------|-----------------|----------------|
|---------------|----------------|-----------------|----------------|
|
|  Q.   E Q  Q     Q  Q   Q.   E   Q   H      +Q      +W
|---------------|----------------|-----------------|----------------|
|---------------|----------------|-----------------|----------------|
|-10----9-7--9--|--------10----9-|-7--10-----(10)--|-(10)-----------|
|---------------|-10--7----------|-----------------|----------------|
|---------------|----------------|-----------------|----------------|
|---------------|----------------|-----------------|----------------|


                                   Solo
    Q   Q  Q  Q    Q  H     +Q       Q   E E S S S S Q    Q   E E S S S S Q
|---1---0--------|---------------||---------------------|--------------------|
|----------3--1--|-3--0-----(0)--||----------1h3p1p0----|---------1h3p1p0----|
|----------------|---------------||--2-----2---------2--|-2-----2---------2--|
|----------------|---------------||---------------------|--------------------|
|-------0--------|----0-----(0)--||--0---0---0-------0--|-0---0---0-------0--|
|----------------|---------------||---------------------|--------------------|
|
|  +Q   Q  Q  Q    Q  H.             S S Q   E Q   Q      Q.    E H
|----------------|---------------||---------------------|--------------------|
|----------------|---------------||---------------------|--------------------|
|-(10)--9--7--5--|-7-------------||---------------------|--------------------|
|----------------|----9----------||-10p9p7---5-7--------|--------------------|
|----------------|---------------||----------------7----|-8-----5-7----------|
|----------------|---------------||---------------------|--------------------|


  Q    E E H       Q     E E S S S S Q    Q   E E S S S S Q    Q    E E H
|---------------|-----------------------|--------------------|---------------|
|-5------5-7----|------------1h3p1p0----|---------1h3p1p0----|-5------5-7----|
|---------------|--2-------2---------2--|-2-----2---------2--|---------------|
|---------------|-----------------------|--------------------|---------------|
|-3----3---5----|--0-----0---0-------0--|-0---0---0-------0--|-3----3---5----|
|---------------|-----------------------|--------------------|---------------|
|
| E E  E E H       S S Q   E Q       Q    Q.    E H            E E  E E H
|---------------|-----------------------|--------------------|---------------|
|---------------|-----------------------|--------------------|---------------|
|--------7-9----|-----------------------|--------------------|--------7-9----|
|-7-9-10--------|-10p9p7---5-7----------|--------------------|-7-9-10--------|
|---------------|--------------------7--|-8-----5-7----------|---------------|
|---------------|-----------------------|--------------------|---------------|


  Q.   Q.    Q    Q.   Q.    Q    Q.    Q.    Q     Q.   Q.     Q
|---------------|---------------|----------------|--3----1------0---|
|-1----0-----1--|-0----1-----0--|-3-----5-----6--|------------------|
|---------------|---------------|----------------|------------------|
|---------------|---------------|-0--------------|------------------|
|-0-------------|---------------|----------------|------------------|
|---------------|-3-------------|----------------|--3---------------|
|
| Q.   Q.    Q    Q.   Q.    Q    Q.    Q.    Q     Q.   Q   E  E E
|---------------|---------------|----------------|------------------|
|---------------|---------------|----------------|------------------|
|---------------|-9-------------|----------------|-------9---7------|
|-7----9----10--|------9--------|----------------|-------------10-9-|
|---------------|-----------10--|-8----10----12--|-10---------------|
|---------------|---------------|----------------|------------------|


   Q.   Q.   Q    Q.   Q.    Q       Q.    Q.    Q    W
|---------------|-3----1-----0-----|-------------3--|-3----||
|--6----5----6--|------------------|-6-----5--------|------||
|---------------|------------------|----------------|------||
|--0------------|------------------|-0--------------|------||
|---------------|------------------|----------------|------||
|---------------|-3----------------|-------------3--|-3----||
|
|  Q.   Q.   Q    Q.   Q   E S S E   Q.    Q.    Q    W
|---------------|------------------|----------------|------||
|---------------|------8---8-6-8-6-|------------10--|-8----||
|-------7----9--|-7----------------|-7----10--------|------||
|-10------------|------------------|----------------|------||
|---------------|------------------|----------------|------||
|---------------|------------------|----------------|------||


 2. Verse
  Q.   Q.   Q    Q.   Q.   Q    Q.   Q.       Q      Q.   Q.   Q
|--------------|--------------|-------------------|---------------|
|-5------------|-----------3--|-------------------|---------------|
|------4----5--|-4----5-------|-4----2--------0---|--5----4----5--|
|--------------|--------------|-------------------|---------------|
|-0------------|--------------|-------------------|--0------------|
|--------------|-3------------|-0-----------------|---------------|
|
| Q.   Q.   Q    W              H       +E  E E E   +W
|--------------|--------------|-------------------|---------------|
|--------------|--------------|---------------6-5-|-(5)-----------|
|-5----7----9--|-4------------|-4-------(4)-4-----|---------------|
|--------------|--------------|-------------------|---------------|
|--------------|--------------|-------------------|---------------|
|--------------|--------------|-------------------|---------------|


  Q.   Q.   Q    Q.   Q.      Q     Q.   Q.      Q    Q.   Q.   Q
|--------------|------------------|-----------------|--------------|
|-5----3-------|--------------3---|-----------------|--------------|
|-----------5--|-4----5-----------|-4----5-------4--|-5----4----5--|
|--------------|------------------|-----------------|--------------|
|-0------------|------------------|-----------------|-0------------|
|--------------|-3----------------|-0---------------|--------------|
|
| W              H       +Q.  S S   H       +Q   Q    W
|--------------|------------------|-----------------|--------------|
|--------------|------------------|-----------------|--------------|
|-5------------|-7-------(7)--4-5-|-4-------(4)--4--|-2------------|
|--------------|------------------|-----------------|--------------|
|--------------|------------------|-----------------|--------------|
|--------------|------------------|-----------------|--------------|


  Q.   Q.   Q    Q.   Q.   Q    Q.   Q.       Q     Q.    Q.    Q
|--------------|--------------|-------------------|------------------|
|-5------------|-----------3--|-------------------|------------------|
|------4----5--|-4----5-------|-4----2--------0---|-5-----4-----5----|
|--------------|--------------|-------------------|------------------|
|-0------------|--------------|-------------------|-0----------------|
|--------------|-3------------|-0-----------------|------------------|
|
| Q.   Q.   Q    Q.   Q.   Q    H       +E  E E E   E. E. E  H
|--------------|--------------|-------------------|------------------|
|--------------|--------------|-------------------|------------------|
|-5----7----5--|-4------------|-----------------4-|-5--4-------------|
|--------------|------7----5--|-5-------(5)-5-7---|-------5--7-------|
|--------------|--------------|-------------------|------------------|
|--------------|--------------|-------------------|------------------|


  Q.   Q.   Q    Q.   Q.   Q    Q.   Q.   Q    S S S H.      +S
|--------------|--------------|--------------|-------------------||
|-5------------|-----------3--|-----------3--|-5h6p5p3-------(3)-||
|------4----5--|-4----5-------|-4----5-------|-------------------||
|--------------|--------------|--------------|-0-----------------||
|-0------------|--------------|--------------|-------------------||
|--------------|-3------------|-0------------|-------------------||
|
| W              W              W              S S S H.      +S
|--------------|--------------|--------------|-------------------||
|--------------|--------------|--------------|-------------------||
|--------------|--------------|--------------|-------------------||
|--------------|--------------|--------------|-2h3p2p0-------(0)-||
|--------------|--------------|--------------|-------------------||
|--------------|--------------|--------------|-------------------||


 2. Bridge                2. Refrain
  H    H      H    H       Q  Q  Q  Q     Q  Q   Q.       E
|-----------|-----------||----------0--|---------1--------0-----|
|-1----0----|------0----||-3-----3-----|--1---------------------|
|-----------|-2---------||----2--------|-----2------------------|
|-----------|-----------||-0-----------|---------0--------------|
|-3----2----|-0----2----||----------0--|------------------------|
|-----------|-----------||-------------|------------------------|
|
| H    H      H    H       Q  Q  Q  Q     Q  Q   Q   S  S S +S
|-----------|-----------||-------------|------------------------|
|-----------|-----------||-------------|------------------------|
|-5----4----|-2----4----||-7-----7--9--|--------10---9-10-9-(9)-|
|-----------|-----------||----7--------|-10--7------------------|
|-----------|-----------||-------------|------------------------|
|-----------|-----------||-------------|------------------------|


  Q  Q   Q  Q     Q.   E Q  Q     Q  Q   Q.   E   Q   H    Q
|----0---------|--1----0----0--|---------1----0-|-----5----5------|
|-3------1-----|---------3-----|--1-------------|-3---------------|
|-----------2--|---------------|-----2----------|-----------------|
|--------------|--0------------|---------0------|-----3----3------|
|----0---------|------------0--|----------------|-----------------|
|--------------|---------------|----------------|-----------------|
|
| Q  Q   Q  Q     Q.   E Q  Q     Q  Q   Q.   E   Q   H    E  E
|--------------|---------------|----------------|-----------------|
|--------------|---------------|----------------|----10----8-10---|
|-7--9---------|-10----9-7--9--|--------10----9-|-7---------------|
|-------10--7--|---------------|-10--7----------|-----------------|
|--------------|---------------|----------------|-----------------|
|--------------|---------------|----------------|-----------------|


  H    +Q    Q    E E E E E E Q    +Q     H     Q        H    Q  Q
|-7----(7)------|-------1-0h1----|--------------------|----------------|
|------------3--|-----3-------3--|-(3)----------------|----------------|
|---------------|---2------------|--------------------|----------------|
|-5----(5)---0--|-0--------------|--------3-----3-----|--5----5--0-----|
|---------------|----------------|--------------------|----------------|
|---------------|----------------|--------------------|----------------|
|
| H     E  E Q    E E E E E E Q     E  E  H     E   E    H    Q  S  E.
|---------------|-----3-5-3-5----|--------------------|----------------|
|-8-------------|-5-6---------6--|-10--8-10----10-/12-|-12----8--8h10--|
|------10--9-7--|----------------|-------------10-/12-|-12-------------|
|---------------|----------------|--------------------|----------------|
|---------------|----------------|--------------------|----------------|
|---------------|----------------|--------------------|----------------|


   +H.        Q     Q  Q  Q  Q     Q  Q   Q.       E       Q  Q   Q  Q
|-----------------|----------0--|---------1--------0-----|----0---------|
|-----------------|-3-----3-----|--1---------------------|-3------1-----|
|-----------------|----2--------|-----2------------------|-----------2--|
|--(0)--------0---|-0-----------|---------0--------------|--------------|
|-----------------|----------0--|------------------------|----0---------|
|-----------------|-------------|------------------------|--------------|
|
|  +H.        Q     Q  Q  Q  Q     Q  Q   Q   S  S S +S    Q  Q   Q  Q
|-----------------|-------------|------------------------|--------------|
|-(10)------(10)--|-------------|------------------------|--------------|
|-------------7---|-7-----7--9--|--------10---9-10-9-(9)-|-7--9---------|
|-----------------|----7--------|-10--7------------------|-------10--7--|
|-----------------|-------------|------------------------|--------------|
|-----------------|-------------|------------------------|--------------|


   Q.   E Q  Q     Q  Q   Q.   E   Q   H    Q      H    +Q    Q
|--1----0----0--|---------1----0-|-----5----5----|-7----(7)------|
|---------3-----|--1-------------|-3-------------|------------3--|
|---------------|-----2----------|---------------|---------------|
|--0------------|---------0------|-----3----3----|-5----(5)---0--|
|------------0--|----------------|---------------|---------------|
|---------------|----------------|---------------|---------------|
|
|  Q.   E Q  Q     Q  Q   Q.   E   Q   H    E  E   H     E  E Q
|---------------|----------------|---------------|---------------|
|---------------|----------------|----10----8-10-|-8-------------|
|-10----9-7--9--|--------10----9-|-7-------------|------10--9-7--|
|---------------|-10--7----------|---------------|---------------|
|---------------|----------------|---------------|---------------|
|---------------|----------------|---------------|---------------|


  E E E E E E Q    +Q     H     Q
|-------1-0h1----|--------------------|
|-----3-------3--|-(3)----------------|
|---2------------|--------------------|
|-0--------------|--------3-----3-----|
|----------------|--------------------|
|----------------|--------------------|
|
| E E E E E E Q     E  E  H     E   E
|-----3-5-3-5----|--------------------|
|-5-6---------6--|-10--8-10----10-/12-|
|----------------|-------------10-/12-|
|----------------|--------------------|
|----------------|--------------------|
|----------------|--------------------|


                      Outro
   H    +Q    Q         Q   Q   Q   Q
|-------------------||-----------------------|
|-------------------||-----------------------|
|-------------------||--0-----------0--------|
|--5----(5)---------||------2----------------|
|-------------3-----||----------2------------|
|-------------------||-----------------------|
|
|  H     Q    S  E.     Q   Q   Q   S  S  E
|-------------------||-----------------------|
|-12----12---12h13--||-13--13--13--12-13-12--|
|-12----------------||-----------------------|
|-------------------||-----------------------|
|-------------------||-----------------------|
|-------------------||-----------------------|


  Q   Q   Q   Q    E E  Q   Q  Q     Q   Q   Q  Q    Q  Q  Q   Q
|----------------|----------------|----------------|----------------|
|---------1------|-0h1------------|----------------|-------1--------|
|-------------2--|------2---------|--0----------0--|-----------2----|
|-0--------------|----------2-----|------2---------|-0--------------|
|-----0----------|-------------3--|----------2-----|----0-----------|
|----------------|----------------|----------------|----------------|
|
| Q   Q   Q   Q    E E  Q   Q  Q    +H       H       Q  Q  E E E  E
|----------------|-7-8---------8--|-(8)-----10-----|-7--8--8-7------|
|-8--10--10--10--|-----10--10-----|----------------|-----------8-10-|
|----------------|----------------|----------------|----------------|
|----------------|----------------|----------------|----------------|
|----------------|----------------|----------------|----------------|
|----------------|----------------|----------------|----------------|


  E E Q   Q    Q     Q   Q   Q   Q     Q  Q  Q  Q    E E Q  Q   Q
|------------------|-----------------|-------------|---------------|
|-0h1--------------|-----------------|-------1-----|-0h1-----------|
|-----2------------|-0-----------0---|----------2--|-----2---------|
|---------2--------|-----2-----------|-0-----------|--------2------|
|--------------3---|---------2-------|----0--------|------------3--|
|------------------|-----------------|-------------|---------------|
|
| H      +Q    Q     E E E E Q.    E   Q  H     Q    H      E E Q
|--------------5---|-5-8-7-5---------|-7--5--------|--------8-7-8--|
|-5------(5)--(5)--|---------8-----8-|----------5--|-5-------------|
|------------------|-----------------|-------------|---------------|
|------------------|-----------------|-------------|---------------|
|------------------|-----------------|-------------|---------------|
|------------------|-----------------|-------------|---------------|


   Q    Q   Q   Q      Q   Q   Q  Q    E E  Q  Q  Q     Q     Q    Q      Q
|-------------------|----------------|---------------|------------------------|
|-------------------|----------1-----|-0h1-----------|------------------------|
|--0------------0---|-------------2--|------2--------|--0-----------------0---|
|-------2-----------|--0-------------|---------2-----|--------2---------------|
|-----------2-------|------0---------|------------3--|-------------2----------|
|-------------------|----------------|---------------|------------------------|
|
| +E  E Q   Q.    E    Q   H.          E E  Q  Q  Q    +E.  Q    Q    +E.   E
|-(8)-7-8--10-----8-|-10--12---------|-7h8--------8--|-(8)-12---10---(10)---8-|
|-------------------|----------------|-----10--5-----|------------------------|
|-------------------|----------------|---------------|------------------------|
|-------------------|----------------|---------------|------------------------|
|-------------------|----------------|---------------|------------------------|
|-------------------|----------------|---------------|------------------------|


  Q  Q  Q    Q    E E Q  Q   Q     Q    Q   Q   Q     Q  Q   Q  Q
|---------------|---------------|-------------------|--------------|
|-------1-------|-0h1-----------|-------------------|--------1-----|
|------------2--|-----2---------|--0------------0---|-----------2--|
|-0-------------|--------2------|-------2-----------|-0------------|
|----0----------|------------3--|-----------2-------|----0---------|
|---------------|---------------|-------------------|--------------|
|
| Q  Q  E E  Q    H      E E Q    +E  E E E Q.    E   Q  H.
|-7--8--8p7-----|----------3-5--|-(5)-8-7-5---------|-7--5---------|
|-----------10--|-5------5------|-----------8-----8-|--------------|
|---------------|---------------|-------------------|--------------|
|---------------|---------------|-------------------|--------------|
|---------------|---------------|-------------------|--------------|
|---------------|---------------|-------------------|--------------|


  E E  Q   Q   Q    +H      H       +H      H            +W
|-----------------|--------------|---------^0----------|-(0)------------------*|
|-0h1-------------|--------------|---------^0----------|-(0)------------------*|
|------2----------|--------------|---------^0----------|-(0)------------------*|
|----------2------|--------------|---------^2----------|-(2)------------------*|
|----------2---5--|-(5)-----5----|--(5)----^2----------|-(2)------------------*|
|----------0---3--|-(3)----------|---------^0----------|-(0)------------------*|
|
| E E  Q   E E Q    +H      H       +H      S S S S Q    +Q    S  S  H    +E
|-7h8--------7-8--|-(8)----10----|-(10)-----7h8p7p5h7--|-(7)--12-12-12---(12)-*|
|-----10--10------|--------------|---------------------|----------------------*|
|-----------------|--------------|---------------------|----------------------*|
|-----------------|--------------|---------------------|----------------------*|
|-----------------|--------------|---------------------|----------------------*|
|-----------------|--------------|---------------------|----------------------*|




--------------------------------------------------------------------------------


Duration Legend
---------------
W - whole; H - half; Q - quarter; E - 8th; S - 16th; T - 32nd; X - 64th; a - acciaccatura
+ - note tied to previous; . - note dotted; .. - note double dotted
Uncapitalized letters represent notes that are staccato (1/2 duration)
Irregular groupings are notated above the duration line
Duration letters will always appear directly above the note/fret number it represents the
duration for.  Duration letters with no fret number below them represent rests.  Multi-
bar rests are notated in the form Wxn, where n is the number of bars to rest for.  Low
melody durations appear below the staff

Tablature Legend
----------------
 h   - hammer-on
 p   - pull-off
 b   - bend
 pb  - pre-bend
 r   - bend release (if no number after the r, then release immediately)
 /\  - slide into or out of (from/to "nowhere")
 s   - legato slide
 S   - shift slide
 - natural harmonic
[n]  - artificial harmonic
n(n) - tapped harmonic
 ~   - vibrato
 tr  - trill
 T   - tap
 TP  - trem. picking
 PM  - palm muting
\n/  - tremolo bar dip; n = amount to dip
 \n  - tremolo bar down
 n/  - tremolo bar up
/n\  - tremolo bar inverted dip
 =   - hold bend; also acts as connecting device for hammers/pulls
 <> - volume swell (louder/softer)
 x   - on rhythm slash represents muted slash
 o   - on rhythm slash represents single note slash

Misc Legend
-----------
 |  - bar
||  - double bar
||o - repeat start
o|| - repeat end
*|  - double bar (ending)
 :  - bar (freetime)
 $  - Segno
 &  - Coda
Tempo markers -  = BPM(8/16=s8/s16), where s8 = swing 8ths, s16 = swing 16ths

Tap to rate this tab
 
# A B C D E F G H I J K L M N O P Q R S T U V W X Y Z