Song name
# A B C D E F G H I J K L M N O P Q R S T U V W X Y Z

Blind Melon - No Rain tab

       No rain tab by Blind Melon

       Traduit en tablture par Steve Morin

|       |       |       |        |       |        
|0-----0-0---0---------0---------|----------------|
|10----1010/-12--------0---------|------------x---|
|9-----9-9/--11--------9---------|------------x---|
|----------------------9---------|----------------|
|--------------------------------|----------------|
|----------------0---------------|----------------|
 
 |       |       |       |        |       |        
|0-----0-0---0---------0---------|----------------|
|10----1010/-12--------0---------|------------x---|
|9-----9-9/--11--------9---------|------------x---|
|----------------------9---------|----------------|
|--------------------------------|----------------|
|----------------0---------------|----------------|
 
 |       |       |       |        |       |       |       |        
|0-----0-0---0---------0---------|----------------------------0---|
|10----1010/-12--------0-------0-|--0-----0-----0-----0-----0-0---|
|9-----9-9/--11--------9-------14|--13----11----9-----7-----7-9---|
|----------------------9-------12|--12----12----9-----7-----7-----|
|--------------------------------|--------------------------------|
|----------------0---------------|--------------------7-----------|
 
 |       |       |       |        |       |       |       |        
|0-----0-0---0-------------------|------------0---0-----0-0---0---|
|0-----0-0---0-0---0-----0-----0-|----0-----0-0---0-----0-0---0-0-|
|9-----7-7-----14--13----11----9-|----7-----7-9---9-----7-7-----14|
|------7-7-----12--12----12----9-|----7-----7-----------7-7-----12|
|--------------------------------|--------------------------------|
|--0-----------------------------|----7-------------0-------------|
 
 |       |       |       |        |       |       |       |        
|----------------------------0---|0-----0-0---0-------------------|
|--0-----0-----0-----0-----0-0---|0-----0-0---0-0---0-----0-----0-|
|--13----11----9-----7-----7-9---|9-----7-7-----14--13----11----9-|
|--12----12----9-----7-----7-----|------7-7-----12--12----12----9-|
|--------------------------------|--------------------------------|
|--------------------7-----------|--0-----------------------------|
 
 |       |       |       |        |       |       |       |        
|------------------------0-----0-|--0-0---0-0---0-0---0-0---0-----|
|----0-----0-0---0-------0-----0-|--0-0---0-0---0-0---0-0---0-----|
|----7-----7-7---7-------1-----1-|--1-1---1-1---1-1---1-1---1-----|
|----7-----7-7---7-------2-------|--2-----2-------2-----2---------|
|------------------------2-------|--------------------------------|
|----7-------------0-------------|--------------------------------|
 
 |       |       |       |        |       |       |       |        
|------2---2-2---2-2---2-2---2-2-|--2-2---2-2---------------------|
|------3---3-3---3-3---3-3---3-3-|--3-3---3-3-----------2---2-2---|
|------2---2-2---2-2---2-2---2-2-|--2-2---2-2-----------2---2-2---|
|0-------------------------------|----------------------2---2-2---|
|--------------------------------|----------------0---------------|
|--------------------------------|--------------------------------|
 
 |       |       |       |        |       |       |       |        
|--------------------------------|------0---0-0---0-0---0-----0-0-|
|2-2---2-2---2-2---2-2---2-2-----|------0---0-0---0-0---3-----0-3-|
|2-2---2-2---2-2---2-2---2-2-----|------1---1-1---1-1---1-----1-1-|
|2-2---2-2---2-2---2-2---2-2-----|------2-----2-----2-------------|
|--------------------------------|------2-------------------------|
|--------------------------------|0-------------------------------|
 
 |       |       |       |        |       |       |       |        
|--0-----0-0---------------------|--------------------------------|
|--0-----0-0---------------------|--------------------------------|
|--1-----1-1---------------------|--------------------------------|
|--2-------2---------------------|--------------------------------|
|--------------------------------|--------------------------------|
|----------------0---------------|--------------------------------|
 
pompom020366@hotmail.com
Tap to rate this tab
# A B C D E F G H I J K L M N O P Q R S T U V W X Y Z