Song name
# A B C D E F G H I J K L M N O P Q R S T U V W X Y Z

Blinded Black - Say Goodbye tab

INTRO:

e|------------------|
B|------------------|
G|-----10------10---|  (3x)
D|------------------|
A|-13------13-------|
D|------------------|


e|--------------------|
B|---------11---------|
G|-----10------10-----|  (2x)
D|--------------------|
A|--------------------|
D|-13-----------------|


e|------------------|
B|------------------|
G|-----10------10---|  (3x)
D|------------------|
A|-13------13-------|
D|------------------|


e|--------------------|
B|---------11---------|
G|-----10------10-----|  (2x)
D|--------------------|
A|--------------------|
D|-13-----------------|



e|-------------|            e|------------------------|          e|-------------|
B|-------8-----|            B|------------------------|          B|-------8-----|
G|----7--------|  (2x)      G|-----8----------10------|  (2x)    G|----7--------|  (2x)
D|-5-----------|            D|---8---8-----8-----8----|          D|-5-----------|
A|-------------|            A|-6--------6-------------|          A|-------------|  
D|-------------|            D|------------------------|          D|-------------|  




:scream part:

e|--13-13-13-13-13--------|
B|--13-13-13-13-13--------|
G|--13-13-13-13-13--------|
D|--13-13-13-13-13--------|
A|--13-13-13-13-13--------|
D|--13-13-13-13-13--------|


e|--5-5-5----------|
B|--5-5-5----------|
G|--5-5-5--2/3-----| (2X)
D|--5-5-5----------|
A|--5-5-5----------|
D|--5-5-5----------|

e|--1-1-1-0--------|
B|--1-1-1-0--------|
G|--1-1-1-0--------|  (3x)
D|--1-1-1-0--------|
A|--1-1-1-0--------|
D|--1-1-1-0--------|


e|--5-5-5----------|
B|--5-5-5----------|
G|--5-5-5--2/3-----| (2X)
D|--5-5-5----------|
A|--5-5-5----------|
D|--5-5-5----------|

e|--1-1-1-0--------|
B|--1-1-1-0--------|
G|--1-1-1-0--------|  (3x)
D|--1-1-1-0--------|
A|--1-1-1-0--------|
D|--1-1-1-0--------|



:verse:

e|--13-13-13-13-13--------|
B|--13-13-13-13-13--------|
G|--13-13-13-13-13--------|
D|--13-13-13-13-13--------|
A|--13-13-13-13-13--------|
D|--13-13-13-13-13--------|


e|--5-5-5----------|
B|--5-5-5----------|
G|--5-5-5--2/3-----| (2X)
D|--5-5-5----------|
A|--5-5-5----------|
D|--5-5-5----------|

e|--1-1-1-0--------|
B|--1-1-1-0--------|
G|--1-1-1-0--------|  (3x)
D|--1-1-1-0--------|
A|--1-1-1-0--------|
D|--1-1-1-0--------|


e|--5-5-5----------|
B|--5-5-5----------|
G|--5-5-5--2/3-----| (2X)
D|--5-5-5----------|
A|--5-5-5----------|
D|--5-5-5----------|

e|--1-1-1-0--------|
B|--1-1-1-0--------|
G|--1-1-1-0--------|  (3x)
D|--1-1-1-0--------|
A|--1-1-1-0--------|
D|--1-1-1-0--------|


e|-----------------|
B|-----------------|
G|-3/5-------------|  (3x)
D|-3/5-------------|
A|-1/3-------------|
D|-----------------|



:chorus:


e|----------------------------------|
B|----------------------------------|
G|----------------------------------|  (3x)
D|-7------1------5-------3------1---|
A|-7------1------5-------3------1---|
D|-7------1------5-------3------1---|


e|-15--14-------|
B|---------15---|
G|--------------|  (4x)
D|--------------|
A|--------------|
D|--------------|


e|----------------------------------|
B|----------------------------------|
G|----------------------------------|  (3x)
D|-7------1------5-------3------1---|
A|-7------1------5-------3------1---|
D|-7------1------5-------3------1---|


e|-15--14-------|
B|---------15---|
G|--------------|  (4x)
D|--------------|
A|--------------|
D|--------------|




:scream part again:

e|----------------------------------------------|
B|----------------------------------------------|
G|----------------------------------------------|  (2x)
D|-12--------13----------12--------14------13---|
A|-12--------13----------12--------14------13---|
D|-12--------13----------12--------14------13---|


:repeat chorus:

thats all thank you
hehe :))


im not really sure about this
peace !!


rakiztakheith@yahoo.com
Tap to rate this tab
 
# A B C D E F G H I J K L M N O P Q R S T U V W X Y Z