Guitaretab - guitar tabs
Song name
# A B C D E F G H I J K L M N O P Q R S T U V W X Y Z

Blindside - Midnight tab

===========================================================
	Artist: Blindside
	  Song: Midnight
	 Album: Silence
===========================================================

Tabbed: TheMutts @ Ultimate-Guitar.com
Email: st_jimmy_themutts@yahoo.com

Key:

x - mute string with fret hand
s - slide
(#) - let ring


Tuning: Standard

-------------------------------------
Intro/Verse
-------------------------------------
[ Tab from: http://www.guitaretab.com/b/blindside/134770.html ]
    PM--------------------------------|
|----------------------------------------|
|----------------------------------------|
|----------------------------------------|
|----------------------------------------|
|---2222222222222222222222222222222222---|
|---3333333333333333333333333333333333---|

|--------|
|--------|
|--------|
|--0--0--|
|--x--x--|
|--3--5--|

-------------------------------------
Clean part
-------------------------------------

|---------------------------|
|---------0-------0-------0-|
|-------4-------5-------6---|
|-----2-------3-------4-----|
|---------------------------|
|---0-------0-------0-------|
Repeat as needed



Thats about the whole song. Really simple actually.
Related for Midnight tab