Song name
# A B C D E F G H I J K L M N O P Q R S T U V W X Y Z

Blindside - Act tab

intro              intro(lead)
e(--------------)(----------------)
b(--------------)(----------------)
g(--------------)(----------------)
d(--22-44-554xx-)(--2--2p0--2-3-2-)
a(--22-44-554xx-)(----------------)
D(--22-44-554xx-)(----------------)

verse
e(-----------------------)(-------------------------------)
b(-----------------------)(-------------------------------)
g(-----------------------)(-------------------------------)
d(-----------------------)(--3-3-3--3335-5--3-3-3--3336-6-)
a(-----------------------)(--3-3-3--3335-5--3-3-3--3336-6-)
D(--2224445-5--2224446-6-)(--3-3-3--3335-5--3-3-3--3336-6-)

chorus
e(---------------------)(--------------)
b(---------------------)(--------------)
g(---------------------)(--------------)
d(--555444222888444222-)(--xx-xx-xx-xx-)
a(--555444222888444222-)(--xx-xx-xx-xx-)
D(--555444222888444222-)(--xx-xx-xx-xx-)

bridge
e(-----------)(--------------)
b(--88-77-88-)(--88-77-88888-)
g(-----------)(--------------)
d(-----------)(--------------)
a(-----------)(--------------)
D(-----------)(--------------)
Tap to rate this tab
# A B C D E F G H I J K L M N O P Q R S T U V W X Y Z