Song name
# A B C D E F G H I J K L M N O P Q R S T U V W X Y Z

Blindspott - Interlude tab

Help us improve GuitareTab! Take a short survey!
Author/Band:Blindspott
Song:Interlude
Album:Blindspott
Tabbed by:KoRotz
Tuning:DADGBE (low to high)
Contact me:epat_skateboarding@hotmail.com

Key
<> = harmonic
p  = pull of
h  = hammer on
*  = palm mute
x  = mute
/  = slide up
\  = slide down
^  = bend

This song's only like a minute something so...
Marcus only plays this one little bit but hey it still counts as a song (lol)...right?
enjoy!

     Intro:w/delay (effect)
----------------------------0------|
--------------------8---------h8\--|
----5-4-------7-------9------------|
----5-5-----5----/7-----10---------|
--3-3-2---7------------------------|
-----------------------------------|

     Intro 2:w/delay (effect)
------------<12>--------------------0-------|
-----------------------------8----------h8\-|
----5-4----------------7-------9------------|
----5-5--------------5----/7-----10---------|
--3-3-2------------7------------------------|
--------------------------------------------|

That's it!
Shout out to MuNkY & mcud!
Related for Interlude tab