Song name
# A B C D E F G H I J K L M N O P Q R S T U V W X Y Z

Blink 182 - Adams Song tab

t. See http://www.olga.net/faq/ for more information.                     #
#-----------------------------------------------------------------------------#

Date: Sat, 22 Apr 2000 16:26:52 -0400
From: dcalder@glinx.com
Subject: b/blink_182/adams_song.tab


"Adam's song"
Artist: Blink 182
Album: Enema of the State, 1999
Tabbed by Zach Haughn, dcalder@glinx.com
This tab is all my own work.

=================================================================

Intro:
E----------------------------------------------------------------
B----------------------------------------------------------------
G----------------------------------------------------------------
D-----2------2------2-----2------2------2------2------2----------
A---0---3--0---3------3-----3------3------3------3------3--------
E-----------------4------4-----1------1------0------1------------


Riff 1: In the song it is the root notes played on a bass
E----------------------------------------------------------------
B----------------------------------------------------------------
G----------------------------------------------------------------
D---55555555------------22222222---------------------------------
A---33333333--33333333--00000000--33333333-----------------------
E-------------11111111------------11111111-----------------------


Riff 3:
E----------------------------------------------------------------
B----------------------------------------------------------------
G---55555555--77777777-------------------------------------------
D-----------------------77777777--33333333-----------------------
A---33333333--55555555-------------------------------------------
E-----------------------55555555--11111111-----------------------


Riff 4:
E----------------------------------------------------------------
B----------------------------------------------------------------
G---55555555--77777777-------------------------------------------
D---55555555--77777777--77777777--33333333-----------------------
A---33333333--55555555--77777777--33333333-----------------------
E-----------------------55555555--11111111-----------------------


Bridge:
E---------------------------------------------------------------
B---------------------------------------------------------------
G---------------------------------------------------------------
D-----0------0------0------0------2------2------2------2--------
A-------5------5------7------7------3------3------3------3------
E---3------3------5------5------1------1------0------0----------


E-----------------
B-----------------
G-----------------
D-----2------2----
A-------3------3--
E---1------1------

================================================================

Breakdown:

Intro:x2
Riff 1:x4   Verse 1
Bridge:x2
Riff 2:x2   Pre Chorus 1
Riff 3:x2   Chrous 1
Intro:x2
Riff 1:x4   Verse 2
Bridge:x2
Riff 2:x2   Pre Chorus 1
Riff 3:x2   Chrous 1
Interlude
Riff 3:x4   Pre Chorus 2
            Chrous 2

================================================================

Thats just about it for this song I didn't figure out
The interlude, but if you listen to the song you will
probally figure it out. If you have any comments you
can e-mail me.
Tap to rate this tab
# A B C D E F G H I J K L M N O P Q R S T U V W X Y Z