Song name
# A B C D E F G H I J K L M N O P Q R S T U V W X Y Z

Blink 182 - Rock Show tab

p=pull off
h=hammer on
palm mute=*
slide=/

 intro:
e--------------------------------------------|
b--------------------------------------------|
g--------------------------------------------| x2
d--------------------------------------------|
a--00-7-00-5-00-4-00-5-00-7-00-5-00-4-7-4-0--|
e--------------------------------------------|


 pre verse:
e---------------------|
b---------------------|
g---------------------|
d--7777777777777777---|
a--7777777777777777---|
e--5555555555555555---|
   ****************

 verse:
e----------------------------------------|
b----------------------------------------|
g-------------------7-777777--9-999999---| x2
d--7-7777777777777--7-777777--9-999999---|
a--7-7777777777777--5-555555--7-777777---|
e--5-5555555555555-----------------------|
     *************    ******    ******


intro:
e--------------------------------------------|
b--------------------------------------------|
g--------------------------------------------| x2
d--------------------------------------------|
a--00-7-00-5-00-4-00-5-00-7-00-5-00-4-7-4-0--|
e--------------------------------------------|

verse 2:
e-------|
b-------|
g-------|
d---7~--|
a---7~--|
e---5~--|

chorus:
e--------------------|
b--------------------|
g--7-7-7-------------| x3
d--7-7-7-777\999\7---|
a--5-5-5-777\999\7---|
e--------555\777\5---|

post chorus:
e---------------------------------------------------------|
b---------------------------------------------------------|
g--77777777----------77777777----------77777777--7~-------|
d--77777777-77777777-77777777-77777777-77777777--7~--7~---|
a--55555555-77777777-55555555-77777777-55555555--5~--7~---|
e-----------55555555----------55555555---------------5~---|
   ******** ******** ******** ******** ********


intro:
e--------------------------------------------|
b--------------------------------------------|
g--------------------------------------------| x2
d--------------------------------------------|
a--00-7-00-5-00-4-00-5-00-7-00-5-00-4-7-4-0--|
e--------------------------------------------|


 verse:
e-----------------------------------------|
b-----------------------------------------|
g--------------------7-777777--9-999999---| x2
d---7-7777777777777--7-777777--9-999999---|
a---7-7777777777777--5-555555--7-777777---|
e---5-5555555555555-----------------------|
      *************    ******    ******


chorus:
e--------------------|
b--------------------|
g--7-7-7-------------| x3
d--7-7-7-777\999\7---|
a--5-5-5-777\999\7---|
e--------555\777\5---|

post chorus:
e---------------------------------------------------------|
b---------------------------------------------------------|
g--77777777----------77777777----------77777777--7~-------|
d--77777777-77777777-77777777-77777777-77777777--7~--7~---|
a--55555555-77777777-55555555-77777777-55555555--5~--7~---|
e-----------55555555----------55555555---------------5~---|
   ******** ******** ******** ******** ********


interlude:
e---------------------|
b--2~------2~--3~-----|
g----2~------2~--2~---| x4
d---------------------|
a---------------------|
e---------------------|

e---------------------------------------------------------------|
b---------------------------------------------------------------|
g-------------------7777777777777777------------------99999999--|
d--4444444444444444-7777777777777777-7777777777777777-99999999--|
a--4444444444444444-5555555555555555-7777777777777777-77777777--|
e--2222222222222222------------------5555555555555555-----------|

chorus:
e--------------------|
b--------------------|
g--7-7-7-------------| x3
d--7-7-7-777\999\7---|
a--5-5-5-777\999\7---|
e--------555\777\5---|

post chorus:
e---------------------------------------------------------|
b---------------------------------------------------------|
g--77777777----------77777777----------77777777--7~-------|
d--77777777-77777777-77777777-77777777-77777777--7~--7~---|
a--55555555-77777777-55555555-77777777-55555555--5~--7~---|
e-----------55555555----------55555555---------------5~---|
   ******** ******** ******** ******** ********


intro:
e--------------------------------------------|
b--------------------------------------------|
g--------------------------------------------| fade out
d--------------------------------------------|
a--00-7-00-5-00-4-00-5-00-7-00-5-00-4-7-4-0--|
e--------------------------------------------|

                              PLEASE COMMENT!!!
Tap to rate this tab
 
# A B C D E F G H I J K L M N O P Q R S T U V W X Y Z