Song name
# A B C D E F G H I J K L M N O P Q R S T U V W X Y Z

Blink 182 - All The Small Things tab

Help us improve GuitareTab! Take a short survey!
The whole song is played with distortion. Except the Interlude, Guitar 1 part.

Intro:

  G5 F5   C5     F/C5     G5        F5
E|------------------------------xxxx--|
B|-------------66666666---------xxxx--|
G|-----5555555555555555---------xxxx--|
D|-5-3-5555555533333333555555555xxxx33|
A|-5-3-3333333333333333555555555xxxx33|
E|-3-1-----------------333333333xxxx11|

Note: You can leave the 3 on the A in F/C off if you want. It sounds better
with.


Verse:

  |<----------Palm Muted--------->|
     C5       G5      F5     G5
E|----------------------------------|
B|----------------------------------|
G|-55555555-------------------------|
D|-55555555555555553333333355555555-|
A|-33333333555555553333333355555555-|
E|---------333333331111111133333333-|
......All.....small...True....Truth.


Pre-Chorus:

  C5
E|---|
B|---|
G|-5-|
D|-5-|  <---Hold
A|-3-|
E|---|
Say it ain't so......


Chorus:

         C5           G5      F5
E|---------------------------------|
B|---------------------------------|
G|-55-55-55-55-5-5-----------------|
D|-55-55-55-55-5-5-55-55-55-33-3-3-|
A|-33-33-33-33-3-3-55-55-55-33-3-3-|
E|-----------------33-33-33-11-1-1-|
  Nana nana nana nana na na...


Intro v.2:

Guitar 1 plays Intro, while guitar 2 plays:
      C5      F5    E5     D5        F5
E|---------- - - - --------------xxxx--|
B|---------- - - - --------------xxxx--|
G|-55555555101010109999-777777777xxxx--|
D|-55555555101010109999-777777777xxxx33|
A|-333333338 8 8 8 7777-555555555xxxx33|
E|---------- - - - --------------xxxx11|


Interlude:

  |C---------------F-------G----------|   <-Guitar 1

  |<-----------Palm Muted----------->|
E|------------------------------------|
B|------------------------------------|
G|-5-5-5-5-5-5-5-5-5-5-5-5-4-4-4-4----|
D|--5-5-5-5-5-5-5-5-5-5-5-5-5-5-5-5---|
A|------------------------------------|   <-Guitar 2
E|------------------------------------|     

First time through the Interlude, Guitar 2 doesn't play.


Order:

Intro v.1 x2
Verse x4
Pre-Chorus
Chorus x2
Intro v.2 x2
Verse x2
Pre-Chorus
Chorus x2
Interlude x4
Chorus x4

End on:
  C5
E|---|
B|---|
G|-5-|
D|-5-|  <---Hold until fade.
A|-3-|
E|---|

Related for All The Small Things tab