Guitaretab - guitar tabs
Song name
# A B C D E F G H I J K L M N O P Q R S T U V W X Y Z

Blink 182 - I Wont Be Home For Christmas tab

Blink 182 - I won't be home for Christmas

I worked hours and hours on this. I'm only 12. Please Support me
Guitar 1

Intro
e|-------------------------------------------------------------------|
B|-------------------------------------------------------------------|
G|-0-0-4-0-5-0-4-0---0-4-0-5-0-4-0---0-4-0-5-0-4-0----0-4-0-2-0-4-0--|
D|--------------------------------------------------0----------------| x 2
A|---------------------------------3---------------------------------|
E|-----------------0-------------------------------------------------|

Verse
e---------------------------------------------------------|
B---------------------------------------------------------|
G-----------------------------5555555555-5--7777777777-7--|
D-5555555555-5--2222222222-2--5555555555-5--7777777777-7--| x 2
A-5555555555-5--2222222222-2--3333333333-3--5555555555-5--|
E-3333333333-3--0000000000-0------------------------------|
Power Chord................................................

Interlude
	Prepare for next verse

Verse
e---------------------------------------------------------|
B---------------------------------------------------------|
G-----------------------------5555555555-5--7777777777-7--|
D-5555555555-5--2222222222-2--5555555555-5--7777777777-7--| x 2
A-5555555555-5--2222222222-2--3333333333-3--5555555555-5--|
E-3333333333-3--0000000000-0------------------------------|
Power Chord................................................






Chorus
e-----------------------------------------|
B-----------------------------------------|
G-----------77777777------------55555555--|
D-55555555--77777777--22222222--55555555--| x 4
A-55555555--55555555--22222222--33333333--|
E-33333333------------00000000------------|

Bridge	
	Prepare for the 2nd intro

Intro

e|-------------------------------------------------------------------|
B|-------------------------------------------------------------------|
G|-0-0-4-0-5-0-4-0---0-4-0-5-0-4-0---0-4-0-5-0-4-0----0-4-0-2-0-4-0--|
D|--------------------------------------------------0----------------| x 2
A|---------------------------------3---------------------------------|
E|-----------------0-------------------------------------------------|

Verse

e---------------------------------------------------------|
B---------------------------------------------------------|
G-----------------------------5555555555-5--7777777777-7--|
D-5555555555-5--2222222222-2--5555555555-5--7777777777-7--| x 2
A-5555555555-5--2222222222-2--3333333333-3--5555555555-5--|
E-3333333333-3--0000000000-0------------------------------|
Power Chord................................................

Chorus
e-----------------------------------------|
B-----------------------------------------|
G-----------77777777------------55555555--|
D-55555555--77777777--22222222--55555555--| x 4
A-55555555--55555555--22222222--33333333--|
E-33333333------------00000000------------|

Bridge
	Prepare for Outro

Outro
e|------------------------------------------|
A|------------------------------------------|
D|------------------------------------------|
G|------------------------------------------|
B|------------------------------------------|
E|----x-x-x-x--x-x-x-x--3-5-7-8--3-5-7-8----|

e|---------------------------|
B|---------------------------|
G|---------------------------|
D|--5~--7~--9~--10~----------| x 4
A|--5~--7~--9~--10~----------|
E|--3~--5~--7~---8~----------|

e|---------|
B|---------|
G|---------|
D|----5~~--|
A|----5~~--|
E|----3~~--|














Blink 182 V I wont be here for Christmas

Guitar 2
[ Tab from: http://www.guitaretab.com/b/blink-182/24375.html ]
Intro
E|----------------------------------------------|
B|----------------------------------------------|
G|--------------77777777------------55555555----|
D|----55555555--77777777--22222222--55555555----| X 2
A|----55555555--55555555--22222222--33333333----|
E|----33333333------------00000000--------------|

Verse
e---------------------------------------------------------------------------|
B---------------------------------------------------------------------------|
G-------------------------------------5555555555555555--7777777777777777----|
D-5555555555555555--2222222222222222--5555555555555555--7777777777777777----| x 2
A-5555555555555555--2222222222222222--3333333333333333X5555555555555555----|
E-3333333333333333--0000000000000000----------------------------------------|
Palm Mute....................................................................

Interlude
e---------------------|
B---------------------|
G-----4--4--4--4------|
D-----5--5--5----5----|
A---------------------|
E---------------------|

Verse
e---------------------------------------------------------------------------|
B---------------------------------------------------------------------------|
G-------------------------------------5555555555555555--7777777777777777----|
D-5555555555555555--2222222222222222--5555555555555555--7777777777777777----| x 2
A-5555555555555555--2222222222222222--3333333333333333X5555555555555555----|
E-3333333333333333--0000000000000000----------------------------------------|
Palm Mute....................................................................

Chorus
e--------------1010101010101010------------88888888-----------|
B----88888888--1010101010101010--55555555--88888888-----------|
G----77777777-- 7 7 7 7 7 7 7 7--44444444--55555555-----------|
D----55555555--------------------22222222---------------------|
A-------------------------------------------------------------|
E-------------------------------------------------------------|

Bridge

e------------------|
B------------------|
G------------------|
D----4-4-4-4--5----|
A----4-4-4-4--5----|
E----2-2-2-2--3----|

Intro
E|----------------------------------------------|
B|----------------------------------------------|
G|--------------77777777------------55555555----|
D|----55555555--77777777--22222222--55555555----| X 2
A|----55555555--55555555--22222222--33333333----|
E|----33333333------------00000000--------------|



Verse

e---------------------------------------------------------------------------|
B---------------------------------------------------------------------------|
G-------------------------------------5555555555555555--7777777777777777----|
D-5555555555555555--2222222222222222--5555555555555555--7777777777777777----| x 2
A-5555555555555555--2222222222222222--3333333333333333X5555555555555555----|
E-3333333333333333--0000000000000000----------------------------------------|
Palm Mute....................................................................


Chorus
e--------------1010101010101010------------88888888-----------|
B----88888888--1010101010101010--55555555--88888888-----------|
G----77777777-- 7 7 7 7 7 7 7 7--44444444--55555555-----------|
D----55555555--------------------22222222---------------------|
A-------------------------------------------------------------|
E-------------------------------------------------------------|

Bridge

e------------------|
B------------------|
G------------------|
D----4-4-4-4--5----|
A----4-4-4-4--5----|
E----2-2-2-2--3----|

Outro
e|------------------------------------------|
A|------------------------------------------|
D|------------------------------------------|
G|------------------------------------------|
B|------------------------------------------|
E|----x-x-x-x--x-x-x-x--x-x-x-x--3-5-7-8----|

e|---------------------------|
B|---------------------------|
G|---------------------------|
D|--5~--7~--9~--10~----------| x 4
A|--5~--7~--9~--10~----------|
E|--3~--5~--7~---8~----------|

e|---------|
B|---------|
G|---------|
D|----5~~--|
A|----5~~--|
E|----3~~--|
Related for I Wont Be Home For Christmas tab