Song name
# A B C D E F G H I J K L M N O P Q R S T U V W X Y Z

Blink 182 - Carousel tab

Intro:

1st part to intro:
e-----------------------------------------------------------------------------
b-----------------------------------------------------------------------------
g-----------------------------------------------------------------------------
d--4-4-5-7-5-4----------------------------------------------------------------
a-5---------------------------------------------------------------------------
E-----------------------------------------------------------------------------

2nd part to intro:
e-----------------------------------------------------------------------------
b-----------------------------------------------------------------------------
g-----------------------------------------------------------------------------
d-----------------------------------------------------------------------------
a-5-4-4-5-7-5-4---------------------------------------------------------------
E-5---------------------------------------------------------------------------

3rd part to intro:
e-----------------------------------------------------------------------------
b-----------------------------------------------------------------------------
g-----------------------------------------------------------------------------
d-----------------------------------------------------------------------------
a-0-7-7-9-10-9-7-0------------------------------------------------------------
E-----------------------------------------------------------------------------
last part of intro:
E-0-0--0-0--0-0
a-3---3-----3


There u go!! Hey and if u are a person that teaches guitar lessons that lives in san diego,Ca my email is anbk16@aol.com. because i want lessons for guitar
Tap to rate this tab
# A B C D E F G H I J K L M N O P Q R S T U V W X Y Z