Song name
# A B C D E F G H I J K L M N O P Q R S T U V W X Y Z

Blink 182 - Carousel tab

Author/Artist: Blink 182
Title: Carousel
Album: Mark Tom and Travis Show
Transcribed by: Colin Kemege
Email: socksandspoons@hotmail.com

This is the version they play live.

-|----------------------------------------------------------------------------
-|----------------------------------------------------------------------------
-|----------------------------------------------------------------------------
-|---4-4-5-7-5-4--------------------------------------------------------------
-|-5-------------5---4-4-5-7-5-4-----6-6-7-99-7-9-----------5----5---5--------
-|-----------------5-------------5-7---------------------33---33---3----------


-|----------------------------------------------------------------------------
-|----------------------------------------------------------------------------
-|----------------------------------------------------------------------------
-|---4-4-5-7-5-4--------------------------------------------------------------
-|-5-------------5---4-4-5-7-5-4-----6-6-7-1010-99-------555555---------------
-|-----------------5-------------5-7---------------------333333---------------      
    bass part for guitar                                                      

-|----------------------------------------------------------------------------
-|----------------------------------------------------------------------------
-|----------------------------------------------------------------------------
-|/11111111-\-9999-/-11111111-\-7777-/----------------------------------------
-|/9-9-9-9--\-7777-/-9-9-9-9--\-5555-/----------------------------------------
-|----------------------------------------------------------------------------
   totaly strummed quickly (also bass part for guitar)                                              

-|---------|
-|---------|
-|7--------|
-|7-7-9-5--|
-|5-7-9-5--|
-|--5-7-3--|
  distortionally strummed                                                                              


E|-------------------------------------------------------------------------------
B|-------------------------------------------------------------------------------
G|-------------------------------------------------------------------------------
D|-------------------------------------------------------------------------------
A|--4-5--------4-5--5-5-5--5-5-5--5-7-5--4-5---------4-5--4-4--5-5-5--7-4-5-7--0-
E|-------------------------------------------------------------------------------   


-|----------------------------------------------------------------------------
-|----------------------------------------------------------------------------
-|----------------------------------------------------------------------------
-|-444444-5-2222222-4444h5p4-77-5-4-2---444444-5-222222-2h4-0-00-4-0-2-4-0-2--
-|----------------------------------------------------------------------------
-|----------------------------------------------------------------------------
                                                        ^this part is 100% right, i've seen it tabbed some goofy ways, but this is definatly correct.                   

-|----------------------------------------------------------------------------
-|----------------------------------------------------------------------------
-|----------------------------------------------------------------------------
-|----------------------------------------------------------------------------
-|---0--2-4-00----------------------------------------------------------------
-|----------------------------------------------------------------------------



-|----------------------------------------------------------------------------
-|----------------------------------------------------------------------------
-|-7777-----------------------------------------------------------------------
-|-7777-7777-9999-5555--------------------------------------------------------
-|-5555-7777-9999-5555--------------------------------------------------------
-|------5555-7777-3333--------------------------------------------------------
  verse                                                                       

-|----------------------------------------------------------------------------
-|----------------------------------------------------------------------------
-|-7777-9999------------------------------------------------------------------
-|-7777-9999-7777-5555--------------------------------------------------------
-|-5555-7777-7777-5555--------------------------------------------------------
-|-----------5555-3333--------------------------------------------------------
  chorus                                                                      

-|----------------------------------------------------------------------------
-|----------------------------------------------------------------------------
-|----------------------------------------------------------------------------
-|---457-5-4------------------------------------------------------------------
-|-5--------5---457-5-4----679-7-6----235-3-2---------------------------------
-|------------5--------5-7--------7-3---------3------------------------------- x4
     crazy bridge
Tap to rate this tab
# A B C D E F G H I J K L M N O P Q R S T U V W X Y Z